ISO-10303-21;
HEADER;
FILE_DESCRIPTION( ( 'Unknown' ), '1' );
FILE_NAME( 'f:/¼È¦s/CP/CP01-3D/CP01-20300.stp', 'Unknown', ( 'Unknown' ), ( 'Unknown' ), 'XStep 1.0', 'Unknown', '  ' );
FILE_SCHEMA( ( 'CONFIG_CONTROL_DESIGN' ) );
ENDSEC;
DATA;
#1 = DESIGN_CONTEXT( '', #27, 'design' );
#2 = APPLICATION_PROTOCOL_DEFINITION( 'INTERNATIONAL STANDARD', 'config_control_design', 1994, #27 );
#3 = PRODUCT_CATEGORY_RELATIONSHIP( 'NONE', 'NONE', #28, #29 );
#4 = DATE_AND_TIME( #30, #31 );
#5 = DATE_TIME_ROLE( 'creation_date' );
#6 = DATE_TIME_ROLE( 'classification_date' );
#7 = PERSON_AND_ORGANIZATION_ROLE( 'creator' );
#8 = PERSON_AND_ORGANIZATION_ROLE( 'design_supplier' );
#9 = PERSON_AND_ORGANIZATION_ROLE( 'classification_officer' );
#10 = PERSON_AND_ORGANIZATION_ROLE( 'design_owner' );
#11 = APPROVAL_PERSON_ORGANIZATION( #32, #33, #34 );
#12 = APPROVAL_DATE_TIME( #4, #33 );
#13 = CC_DESIGN_APPROVAL( #33, ( #35, #36, #37 ) );
#14 = CC_DESIGN_DATE_AND_TIME_ASSIGNMENT( #4, #5, ( #37 ) );
#15 = CC_DESIGN_DATE_AND_TIME_ASSIGNMENT( #4, #6, ( #35 ) );
#16 = CC_DESIGN_PERSON_AND_ORGANIZATION_ASSIGNMENT( #32, #10, ( #38 ) );
#17 = CC_DESIGN_PERSON_AND_ORGANIZATION_ASSIGNMENT( #32, #7, ( #37 ) );
#18 = CC_DESIGN_PERSON_AND_ORGANIZATION_ASSIGNMENT( #32, #7, ( #36 ) );
#19 = CC_DESIGN_PERSON_AND_ORGANIZATION_ASSIGNMENT( #32, #8, ( #36 ) );
#20 = CC_DESIGN_SECURITY_CLASSIFICATION( #35, ( #36 ) );
#21 = CC_DESIGN_PERSON_AND_ORGANIZATION_ASSIGNMENT( #32, #9, ( #35 ) );
#22 = SHAPE_DEFINITION_REPRESENTATION( #39, #40 );
#23 =  ( GEOMETRIC_REPRESENTATION_CONTEXT( 3 )GLOBAL_UNCERTAINTY_ASSIGNED_CONTEXT( ( #43 ) )GLOBAL_UNIT_ASSIGNED_CONTEXT( ( #45, #46, #47 ) )REPRESENTATION_CONTEXT( 'NONE', 'WORKSPACE' ) );
#27 = APPLICATION_CONTEXT( 'CONFIGURATION CONTROLLED 3D DESIGNS OF MECHANICAL PARTS AND ASSEMBLIES' );
#28 = PRODUCT_CATEGORY( 'part', 'NONE' );
#29 = PRODUCT_RELATED_PRODUCT_CATEGORY( 'detail', ' ', ( #38 ) );
#30 = CALENDAR_DATE( 2009, 9, 10 );
#31 = LOCAL_TIME( 9, 28, 31.0000000000000, #49 );
#32 = PERSON_AND_ORGANIZATION( #50, #51 );
#33 = APPROVAL( #52, 'SOLID MODEL' );
#34 = APPROVAL_ROLE( 'APPROVED' );
#35 = SECURITY_CLASSIFICATION( '', '', #53 );
#36 = PRODUCT_DEFINITION_FORMATION_WITH_SPECIFIED_SOURCE( ' ', 'NONE', #38, .NOT_KNOWN. );
#37 = PRODUCT_DEFINITION( 'NONE', 'NONE', #36, #1 );
#38 = PRODUCT( '1', '1', 'PART-1-DESC', ( #54 ) );
#39 = PRODUCT_DEFINITION_SHAPE( 'NONE', 'NONE', #37 );
#40 = ADVANCED_BREP_SHAPE_REPRESENTATION( '1', ( #55, #56 ), #23 );
#43 = UNCERTAINTY_MEASURE_WITH_UNIT( LENGTH_MEASURE( 0.00100000000000000 ), #45, '', '' );
#45 =  ( CONVERSION_BASED_UNIT( 'MILLIMETRE', #59 )LENGTH_UNIT(  )NAMED_UNIT( #62 ) );
#46 =  ( NAMED_UNIT( #64 )PLANE_ANGLE_UNIT(  )SI_UNIT( $, .RADIAN. ) );
#47 =  ( NAMED_UNIT( #64 )SOLID_ANGLE_UNIT(  )SI_UNIT( $, .STERADIAN. ) );
#49 = COORDINATED_UNIVERSAL_TIME_OFFSET( 8, 0, .AHEAD. );
#50 = PERSON( '', 'UNSPECIFIED', $, $, $, $ );
#51 = ORGANIZATION( 'UNSPECIFIED', 'UNSPECIFIED', 'UNSPECIFIED' );
#52 = APPROVAL_STATUS( 'approved' );
#53 = SECURITY_CLASSIFICATION_LEVEL( 'unclassified' );
#54 = MECHANICAL_CONTEXT( '', #27, 'mechanical' );
#55 = MANIFOLD_SOLID_BREP( '1', #70 );
#56 = AXIS2_PLACEMENT_3D( '', #71, #72, #73 );
#59 = LENGTH_MEASURE_WITH_UNIT( LENGTH_MEASURE( 1.00000000000000 ), #74 );
#62 = DIMENSIONAL_EXPONENTS( 1.00000000000000, 0.000000000000000, 0.000000000000000, 0.000000000000000, 0.000000000000000, 0.000000000000000, 0.000000000000000 );
#64 = DIMENSIONAL_EXPONENTS( 0.000000000000000, 0.000000000000000, 0.000000000000000, 0.000000000000000, 0.000000000000000, 0.000000000000000, 0.000000000000000 );
#70 = CLOSED_SHELL( '', ( #75, #76, #77, #78, #79, #80, #81, #82, #83, #84, #85, #86 ) );
#71 = CARTESIAN_POINT( '', ( 0.000000000000000, 0.000000000000000, 0.000000000000000 ) );
#72 = DIRECTION( '', ( 0.000000000000000, 0.000000000000000, 1.00000000000000 ) );
#73 = DIRECTION( '', ( 1.00000000000000, 0.000000000000000, 0.000000000000000 ) );
#74 =  ( NAMED_UNIT( #62 )LENGTH_UNIT(  )SI_UNIT( .MILLI., .METRE. ) );
#75 = ADVANCED_FACE( '', ( #88 ), #89, .F. );
#76 = ADVANCED_FACE( '', ( #90 ), #91, .T. );
#77 = ADVANCED_FACE( '', ( #92 ), #93, .T. );
#78 = ADVANCED_FACE( '', ( #94 ), #95, .F. );
#79 = ADVANCED_FACE( '', ( #96 ), #97, .T. );
#80 = ADVANCED_FACE( '', ( #98 ), #99, .F. );
#81 = ADVANCED_FACE( '', ( #100 ), #101, .T. );
#82 = ADVANCED_FACE( '', ( #102 ), #103, .F. );
#83 = ADVANCED_FACE( '', ( #104 ), #105, .F. );
#84 = ADVANCED_FACE( '', ( #106 ), #107, .F. );
#85 = ADVANCED_FACE( '', ( #108 ), #109, .F. );
#86 = ADVANCED_FACE( '', ( #110 ), #111, .F. );
#88 = FACE_OUTER_BOUND( '', #112, .T. );
#89 = PLANE( '', #113 );
#90 = FACE_OUTER_BOUND( '', #114, .T. );
#91 = CYLINDRICAL_SURFACE( '', #115, 30.0000000000000 );
#92 = FACE_OUTER_BOUND( '', #116, .T. );
#93 = PLANE( '', #117 );
#94 = FACE_OUTER_BOUND( '', #118, .T. );
#95 = PLANE( '', #119 );
#96 = FACE_OUTER_BOUND( '', #120, .T. );
#97 = PLANE( '', #121 );
#98 = FACE_OUTER_BOUND( '', #122, .T. );
#99 = PLANE( '', #123 );
#100 = FACE_OUTER_BOUND( '', #124, .T. );
#101 = PLANE( '', #125 );
#102 = FACE_OUTER_BOUND( '', #126, .T. );
#103 = CYLINDRICAL_SURFACE( '', #127, 10.5000000000000 );
#104 = FACE_OUTER_BOUND( '', #128, .T. );
#105 = PLANE( '', #129 );
#106 = FACE_OUTER_BOUND( '', #130, .T. );
#107 = PLANE( '', #131 );
#108 = FACE_OUTER_BOUND( '', #132, .T. );
#109 = PLANE( '', #133 );
#110 = FACE_OUTER_BOUND( '', #134, .T. );
#111 = PLANE( '', #135 );
#112 = EDGE_LOOP( '', ( #136, #137, #138, #139, #140 ) );
#113 = AXIS2_PLACEMENT_3D( '', #141, #142, #143 );
#114 = EDGE_LOOP( '', ( #144, #145, #146, #147 ) );
#115 = AXIS2_PLACEMENT_3D( '', #148, #149, #150 );
#116 = EDGE_LOOP( '', ( #151, #152, #153, #154 ) );
#117 = AXIS2_PLACEMENT_3D( '', #155, #156, #157 );
#118 = EDGE_LOOP( '', ( #158, #159, #160, #161 ) );
#119 = AXIS2_PLACEMENT_3D( '', #162, #163, #164 );
#120 = EDGE_LOOP( '', ( #165, #166, #167, #168 ) );
#121 = AXIS2_PLACEMENT_3D( '', #169, #170, #171 );
#122 = EDGE_LOOP( '', ( #172, #173, #174, #175, #176 ) );
#123 = AXIS2_PLACEMENT_3D( '', #177, #178, #179 );
#124 = EDGE_LOOP( '', ( #180, #181, #182, #183, #184, #185, #186, #187 ) );
#125 = AXIS2_PLACEMENT_3D( '', #188, #189, #190 );
#126 = EDGE_LOOP( '', ( #191, #192, #193, #194 ) );
#127 = AXIS2_PLACEMENT_3D( '', #195, #196, #197 );
#128 = EDGE_LOOP( '', ( #198, #199, #200, #201, #202, #203, #204, #205 ) );
#129 = AXIS2_PLACEMENT_3D( '', #206, #207, #208 );
#130 = EDGE_LOOP( '', ( #209, #210, #211, #212 ) );
#131 = AXIS2_PLACEMENT_3D( '', #213, #214, #215 );
#132 = EDGE_LOOP( '', ( #216, #217, #218, #219, #220 ) );
#133 = AXIS2_PLACEMENT_3D( '', #221, #222, #223 );
#134 = EDGE_LOOP( '', ( #224, #225, #226, #227, #228 ) );
#135 = AXIS2_PLACEMENT_3D( '', #229, #230, #231 );
#136 = ORIENTED_EDGE( '', *, *, #232, .T. );
#137 = ORIENTED_EDGE( '', *, *, #233, .F. );
#138 = ORIENTED_EDGE( '', *, *, #234, .T. );
#139 = ORIENTED_EDGE( '', *, *, #235, .T. );
#140 = ORIENTED_EDGE( '', *, *, #236, .F. );
#141 = CARTESIAN_POINT( '', ( -3.67381906146713E-015, 30.0000000000000, 35.0000000000000 ) );
#142 = DIRECTION( '', ( 1.41347838783295E-016, -1.00000000000000, 0.000000000000000 ) );
#143 = DIRECTION( '', ( 1.00000000000000, 1.41347838783295E-016, 0.000000000000000 ) );
#144 = ORIENTED_EDGE( '', *, *, #237, .T. );
#145 = ORIENTED_EDGE( '', *, *, #234, .F. );
#146 = ORIENTED_EDGE( '', *, *, #238, .F. );
#147 = ORIENTED_EDGE( '', *, *, #239, .T. );
#148 = CARTESIAN_POINT( '', ( 0.000000000000000, 0.000000000000000, 35.0000000000000 ) );
#149 = DIRECTION( '', ( -0.000000000000000, -0.000000000000000, 1.00000000000000 ) );
#150 = DIRECTION( '', ( -1.00000000000000, 0.000000000000000, 0.000000000000000 ) );
#151 = ORIENTED_EDGE( '', *, *, #240, .T. );
#152 = ORIENTED_EDGE( '', *, *, #241, .F. );
#153 = ORIENTED_EDGE( '', *, *, #232, .F. );
#154 = ORIENTED_EDGE( '', *, *, #242, .F. );
#155 = CARTESIAN_POINT( '', ( -270.000000000000, -30.0000000000000, 10.0000000000000 ) );
#156 = DIRECTION( '', ( -0.707106781186548, 0.000000000000000, 0.707106781186547 ) );
#157 = DIRECTION( '', ( 0.707106781186547, 0.000000000000000, 0.707106781186548 ) );
#158 = ORIENTED_EDGE( '', *, *, #242, .T. );
#159 = ORIENTED_EDGE( '', *, *, #236, .T. );
#160 = ORIENTED_EDGE( '', *, *, #243, .T. );
#161 = ORIENTED_EDGE( '', *, *, #244, .F. );
#162 = CARTESIAN_POINT( '', ( -270.000000000000, 30.0000000000000, 35.0000000000000 ) );
#163 = DIRECTION( '', ( 1.00000000000000, 0.000000000000000, 0.000000000000000 ) );
#164 = DIRECTION( '', ( 0.000000000000000, 0.000000000000000, -1.00000000000000 ) );
#165 = ORIENTED_EDGE( '', *, *, #245, .T. );
#166 = ORIENTED_EDGE( '', *, *, #246, .F. );
#167 = ORIENTED_EDGE( '', *, *, #247, .T. );
#168 = ORIENTED_EDGE( '', *, *, #248, .T. );
#169 = CARTESIAN_POINT( '', ( -270.000000000000, -30.0000000000000, 10.0000000000000 ) );
#170 = DIRECTION( '', ( -0.707106781186548, 0.000000000000000, 0.707106781186547 ) );
#171 = DIRECTION( '', ( 0.707106781186547, 0.000000000000000, 0.707106781186548 ) );
#172 = ORIENTED_EDGE( '', *, *, #245, .F. );
#173 = ORIENTED_EDGE( '', *, *, #249, .F. );
#174 = ORIENTED_EDGE( '', *, *, #250, .T. );
#175 = ORIENTED_EDGE( '', *, *, #251, .T. );
#176 = ORIENTED_EDGE( '', *, *, #252, .F. );
#177 = CARTESIAN_POINT( '', ( -270.000000000000, -10.5000000000000, 35.0000000000000 ) );
#178 = DIRECTION( '', ( -6.42490176287706E-018, -1.00000000000000, 0.000000000000000 ) );
#179 = DIRECTION( '', ( 1.00000000000000, -6.42490176287706E-018, 0.000000000000000 ) );
#180 = ORIENTED_EDGE( '', *, *, #233, .T. );
#181 = ORIENTED_EDGE( '', *, *, #241, .T. );
#182 = ORIENTED_EDGE( '', *, *, #253, .T. );
#183 = ORIENTED_EDGE( '', *, *, #254, .T. );
#184 = ORIENTED_EDGE( '', *, *, #249, .T. );
#185 = ORIENTED_EDGE( '', *, *, #248, .F. );
#186 = ORIENTED_EDGE( '', *, *, #255, .T. );
#187 = ORIENTED_EDGE( '', *, *, #238, .T. );
#188 = CARTESIAN_POINT( '', ( 0.000000000000000, 0.000000000000000, 35.0000000000000 ) );
#189 = DIRECTION( '', ( 0.000000000000000, 0.000000000000000, 1.00000000000000 ) );
#190 = DIRECTION( '', ( 1.00000000000000, 0.000000000000000, 0.000000000000000 ) );
#191 = ORIENTED_EDGE( '', *, *, #256, .T. );
#192 = ORIENTED_EDGE( '', *, *, #250, .F. );
#193 = ORIENTED_EDGE( '', *, *, #254, .F. );
#194 = ORIENTED_EDGE( '', *, *, #257, .T. );
#195 = CARTESIAN_POINT( '', ( 0.000000000000000, 0.000000000000000, 35.0000000000000 ) );
#196 = DIRECTION( '', ( -0.000000000000000, -0.000000000000000, 1.00000000000000 ) );
#197 = DIRECTION( '', ( -1.00000000000000, 0.000000000000000, 0.000000000000000 ) );
#198 = ORIENTED_EDGE( '', *, *, #237, .F. );
#199 = ORIENTED_EDGE( '', *, *, #258, .F. );
#200 = ORIENTED_EDGE( '', *, *, #259, .F. );
#201 = ORIENTED_EDGE( '', *, *, #251, .F. );
#202 = ORIENTED_EDGE( '', *, *, #256, .F. );
#203 = ORIENTED_EDGE( '', *, *, #260, .F. );
#204 = ORIENTED_EDGE( '', *, *, #243, .F. );
#205 = ORIENTED_EDGE( '', *, *, #235, .F. );
#206 = CARTESIAN_POINT( '', ( 0.000000000000000, 0.000000000000000, 0.000000000000000 ) );
#207 = DIRECTION( '', ( 0.000000000000000, 0.000000000000000, 1.00000000000000 ) );
#208 = DIRECTION( '', ( 1.00000000000000, 0.000000000000000, 0.000000000000000 ) );
#209 = ORIENTED_EDGE( '', *, *, #246, .T. );
#210 = ORIENTED_EDGE( '', *, *, #252, .T. );
#211 = ORIENTED_EDGE( '', *, *, #259, .T. );
#212 = ORIENTED_EDGE( '', *, *, #261, .F. );
#213 = CARTESIAN_POINT( '', ( -270.000000000000, -10.5000000000000, 35.0000000000000 ) );
#214 = DIRECTION( '', ( 1.00000000000000, 0.000000000000000, 0.000000000000000 ) );
#215 = DIRECTION( '', ( 0.000000000000000, 0.000000000000000, -1.00000000000000 ) );
#216 = ORIENTED_EDGE( '', *, *, #247, .F. );
#217 = ORIENTED_EDGE( '', *, *, #261, .T. );
#218 = ORIENTED_EDGE( '', *, *, #258, .T. );
#219 = ORIENTED_EDGE( '', *, *, #239, .F. );
#220 = ORIENTED_EDGE( '', *, *, #255, .F. );
#221 = CARTESIAN_POINT( '', ( 3.67381906146713E-015, -30.0000000000000, 35.0000000000000 ) );
#222 = DIRECTION( '', ( -1.28498035257541E-016, 1.00000000000000, 0.000000000000000 ) );
#223 = DIRECTION( '', ( -1.00000000000000, -1.28498035257541E-016, 0.000000000000000 ) );
#224 = ORIENTED_EDGE( '', *, *, #240, .F. );
#225 = ORIENTED_EDGE( '', *, *, #244, .T. );
#226 = ORIENTED_EDGE( '', *, *, #260, .T. );
#227 = ORIENTED_EDGE( '', *, *, #257, .F. );
#228 = ORIENTED_EDGE( '', *, *, #253, .F. );
#229 = CARTESIAN_POINT( '', ( -270.000000000000, 10.5000000000000, 35.0000000000000 ) );
#230 = DIRECTION( '', ( 0.000000000000000, 1.00000000000000, 0.000000000000000 ) );
#231 = DIRECTION( '', ( 0.000000000000000, 0.000000000000000, 1.00000000000000 ) );
#232 = EDGE_CURVE( '', #262, #263, #264, .T. );
#233 = EDGE_CURVE( '', #265, #263, #266, .T. );
#234 = EDGE_CURVE( '', #265, #267, #268, .T. );
#235 = EDGE_CURVE( '', #267, #269, #270, .T. );
#236 = EDGE_CURVE( '', #262, #269, #271, .T. );
#237 = EDGE_CURVE( '', #272, #267, #273, .T. );
#238 = EDGE_CURVE( '', #274, #265, #275, .T. );
#239 = EDGE_CURVE( '', #274, #272, #276, .T. );
#240 = EDGE_CURVE( '', #277, #278, #279, .T. );
#241 = EDGE_CURVE( '', #263, #278, #280, .T. );
#242 = EDGE_CURVE( '', #277, #262, #281, .T. );
#243 = EDGE_CURVE( '', #269, #282, #283, .T. );
#244 = EDGE_CURVE( '', #277, #282, #284, .T. );
#245 = EDGE_CURVE( '', #285, #286, #287, .T. );
#246 = EDGE_CURVE( '', #288, #286, #289, .T. );
#247 = EDGE_CURVE( '', #288, #290, #291, .T. );
#248 = EDGE_CURVE( '', #290, #285, #292, .T. );
#249 = EDGE_CURVE( '', #293, #285, #294, .T. );
#250 = EDGE_CURVE( '', #293, #295, #296, .T. );
#251 = EDGE_CURVE( '', #295, #297, #298, .T. );
#252 = EDGE_CURVE( '', #286, #297, #299, .T. );
#253 = EDGE_CURVE( '', #278, #300, #301, .T. );
#254 = EDGE_CURVE( '', #300, #293, #302, .T. );
#255 = EDGE_CURVE( '', #290, #274, #303, .T. );
#256 = EDGE_CURVE( '', #304, #295, #305, .T. );
#257 = EDGE_CURVE( '', #300, #304, #306, .T. );
#258 = EDGE_CURVE( '', #307, #272, #308, .T. );
#259 = EDGE_CURVE( '', #297, #307, #309, .T. );
#260 = EDGE_CURVE( '', #282, #304, #310, .T. );
#261 = EDGE_CURVE( '', #288, #307, #311, .T. );
#262 = VERTEX_POINT( '', #312 );
#263 = VERTEX_POINT( '', #313 );
#264 = LINE( '', #314, #315 );
#265 = VERTEX_POINT( '', #316 );
#266 = LINE( '', #317, #318 );
#267 = VERTEX_POINT( '', #319 );
#268 = LINE( '', #320, #321 );
#269 = VERTEX_POINT( '', #322 );
#270 = LINE( '', #323, #324 );
#271 = LINE( '', #325, #326 );
#272 = VERTEX_POINT( '', #327 );
#273 = CIRCLE( '', #328, 30.0000000000000 );
#274 = VERTEX_POINT( '', #329 );
#275 = CIRCLE( '', #330, 30.0000000000000 );
#276 = LINE( '', #331, #332 );
#277 = VERTEX_POINT( '', #333 );
#278 = VERTEX_POINT( '', #334 );
#279 = LINE( '', #335, #336 );
#280 = LINE( '', #337, #338 );
#281 = LINE( '', #339, #340 );
#282 = VERTEX_POINT( '', #341 );
#283 = LINE( '', #342, #343 );
#284 = LINE( '', #344, #345 );
#285 = VERTEX_POINT( '', #346 );
#286 = VERTEX_POINT( '', #347 );
#287 = LINE( '', #348, #349 );
#288 = VERTEX_POINT( '', #350 );
#289 = LINE( '', #351, #352 );
#290 = VERTEX_POINT( '', #353 );
#291 = LINE( '', #354, #355 );
#292 = LINE( '', #356, #357 );
#293 = VERTEX_POINT( '', #358 );
#294 = LINE( '', #359, #360 );
#295 = VERTEX_POINT( '', #361 );
#296 = LINE( '', #362, #363 );
#297 = VERTEX_POINT( '', #364 );
#298 = LINE( '', #365, #366 );
#299 = LINE( '', #367, #368 );
#300 = VERTEX_POINT( '', #369 );
#301 = LINE( '', #370, #371 );
#302 = CIRCLE( '', #372, 10.5000000000000 );
#303 = LINE( '', #373, #374 );
#304 = VERTEX_POINT( '', #375 );
#305 = CIRCLE( '', #376, 10.5000000000000 );
#306 = LINE( '', #377, #378 );
#307 = VERTEX_POINT( '', #379 );
#308 = LINE( '', #380, #381 );
#309 = LINE( '', #382, #383 );
#310 = LINE( '', #384, #385 );
#311 = LINE( '', #386, #387 );
#312 = CARTESIAN_POINT( '', ( -270.000000000000, 30.0000000000000, 10.0000000000000 ) );
#313 = CARTESIAN_POINT( '', ( -245.000000000000, 30.0000000000000, 35.0000000000000 ) );
#314 = CARTESIAN_POINT( '', ( -270.000000000000, 30.0000000000000, 10.0000000000000 ) );
#315 = VECTOR( '', #388, 1000.00000000000 );
#316 = CARTESIAN_POINT( '', ( -3.67381906146713E-015, 30.0000000000000, 35.0000000000000 ) );
#317 = CARTESIAN_POINT( '', ( -3.67381906146713E-015, 30.0000000000000, 35.0000000000000 ) );
#318 = VECTOR( '', #389, 1000.00000000000 );
#319 = CARTESIAN_POINT( '', ( -3.67381906146713E-015, 30.0000000000000, 0.000000000000000 ) );
#320 = CARTESIAN_POINT( '', ( -3.67381906146713E-015, 30.0000000000000, 35.0000000000000 ) );
#321 = VECTOR( '', #390, 1000.00000000000 );
#322 = CARTESIAN_POINT( '', ( -270.000000000000, 30.0000000000000, 0.000000000000000 ) );
#323 = CARTESIAN_POINT( '', ( -3.67381906146713E-015, 30.0000000000000, 0.000000000000000 ) );
#324 = VECTOR( '', #391, 1000.00000000000 );
#325 = CARTESIAN_POINT( '', ( -270.000000000000, 30.0000000000000, 35.0000000000000 ) );
#326 = VECTOR( '', #392, 1000.00000000000 );
#327 = CARTESIAN_POINT( '', ( 3.67381906146713E-015, -30.0000000000000, 0.000000000000000 ) );
#328 = AXIS2_PLACEMENT_3D( '', #393, #394, #395 );
#329 = CARTESIAN_POINT( '', ( 3.67381906146713E-015, -30.0000000000000, 35.0000000000000 ) );
#330 = AXIS2_PLACEMENT_3D( '', #396, #397, #398 );
#331 = CARTESIAN_POINT( '', ( 3.67381906146713E-015, -30.0000000000000, 35.0000000000000 ) );
#332 = VECTOR( '', #399, 1000.00000000000 );
#333 = CARTESIAN_POINT( '', ( -270.000000000000, 10.5000000000000, 10.0000000000000 ) );
#334 = CARTESIAN_POINT( '', ( -245.000000000000, 10.5000000000000, 35.0000000000000 ) );
#335 = CARTESIAN_POINT( '', ( -257.500000000000, 10.5000000000000, 22.5000000000000 ) );
#336 = VECTOR( '', #400, 1000.00000000000 );
#337 = CARTESIAN_POINT( '', ( -245.000000000000, 0.000000000000000, 35.0000000000000 ) );
#338 = VECTOR( '', #401, 1000.00000000000 );
#339 = CARTESIAN_POINT( '', ( -270.000000000000, -30.0000000000000, 10.0000000000000 ) );
#340 = VECTOR( '', #402, 1000.00000000000 );
#341 = CARTESIAN_POINT( '', ( -270.000000000000, 10.5000000000000, 0.000000000000000 ) );
#342 = CARTESIAN_POINT( '', ( -270.000000000000, 30.0000000000000, 0.000000000000000 ) );
#343 = VECTOR( '', #403, 1000.00000000000 );
#344 = CARTESIAN_POINT( '', ( -270.000000000000, 10.5000000000000, 35.0000000000000 ) );
#345 = VECTOR( '', #404, 1000.00000000000 );
#346 = CARTESIAN_POINT( '', ( -245.000000000000, -10.5000000000000, 35.0000000000000 ) );
#347 = CARTESIAN_POINT( '', ( -270.000000000000, -10.5000000000000, 10.0000000000000 ) );
#348 = CARTESIAN_POINT( '', ( -257.500000000000, -10.5000000000000, 22.5000000000000 ) );
#349 = VECTOR( '', #405, 1000.00000000000 );
#350 = CARTESIAN_POINT( '', ( -270.000000000000, -30.0000000000000, 10.0000000000000 ) );
#351 = CARTESIAN_POINT( '', ( -270.000000000000, -30.0000000000000, 10.0000000000000 ) );
#352 = VECTOR( '', #406, 1000.00000000000 );
#353 = CARTESIAN_POINT( '', ( -245.000000000000, -30.0000000000000, 35.0000000000000 ) );
#354 = CARTESIAN_POINT( '', ( -270.000000000000, -30.0000000000000, 10.0000000000000 ) );
#355 = VECTOR( '', #407, 1000.00000000000 );
#356 = CARTESIAN_POINT( '', ( -245.000000000000, -30.0000000000000, 35.0000000000000 ) );
#357 = VECTOR( '', #408, 1000.00000000000 );
#358 = CARTESIAN_POINT( '', ( 1.92875500727025E-015, -10.5000000000000, 35.0000000000000 ) );
#359 = CARTESIAN_POINT( '', ( -270.000000000000, -10.5000000000000, 35.0000000000000 ) );
#360 = VECTOR( '', #409, 1000.00000000000 );
#361 = CARTESIAN_POINT( '', ( 1.92875500727025E-015, -10.5000000000000, 0.000000000000000 ) );
#362 = CARTESIAN_POINT( '', ( 1.92875500727025E-015, -10.5000000000000, 35.0000000000000 ) );
#363 = VECTOR( '', #410, 1000.00000000000 );
#364 = CARTESIAN_POINT( '', ( -270.000000000000, -10.5000000000000, 0.000000000000000 ) );
#365 = CARTESIAN_POINT( '', ( -270.000000000000, -10.5000000000000, 0.000000000000000 ) );
#366 = VECTOR( '', #411, 1000.00000000000 );
#367 = CARTESIAN_POINT( '', ( -270.000000000000, -10.5000000000000, 35.0000000000000 ) );
#368 = VECTOR( '', #412, 1000.00000000000 );
#369 = CARTESIAN_POINT( '', ( 0.000000000000000, 10.5000000000000, 35.0000000000000 ) );
#370 = CARTESIAN_POINT( '', ( -270.000000000000, 10.5000000000000, 35.0000000000000 ) );
#371 = VECTOR( '', #413, 1000.00000000000 );
#372 = AXIS2_PLACEMENT_3D( '', #414, #415, #416 );
#373 = CARTESIAN_POINT( '', ( 3.67381906146713E-015, -30.0000000000000, 35.0000000000000 ) );
#374 = VECTOR( '', #417, 1000.00000000000 );
#375 = CARTESIAN_POINT( '', ( 0.000000000000000, 10.5000000000000, 0.000000000000000 ) );
#376 = AXIS2_PLACEMENT_3D( '', #418, #419, #420 );
#377 = CARTESIAN_POINT( '', ( 0.000000000000000, 10.5000000000000, 35.0000000000000 ) );
#378 = VECTOR( '', #421, 1000.00000000000 );
#379 = CARTESIAN_POINT( '', ( -270.000000000000, -30.0000000000000, 0.000000000000000 ) );
#380 = CARTESIAN_POINT( '', ( 3.67381906146713E-015, -30.0000000000000, 0.000000000000000 ) );
#381 = VECTOR( '', #422, 1000.00000000000 );
#382 = CARTESIAN_POINT( '', ( -270.000000000000, -10.5000000000000, 0.000000000000000 ) );
#383 = VECTOR( '', #423, 1000.00000000000 );
#384 = CARTESIAN_POINT( '', ( -270.000000000000, 10.5000000000000, 0.000000000000000 ) );
#385 = VECTOR( '', #424, 1000.00000000000 );
#386 = CARTESIAN_POINT( '', ( -270.000000000000, -30.0000000000000, 35.0000000000000 ) );
#387 = VECTOR( '', #425, 1000.00000000000 );
#388 = DIRECTION( '', ( 0.707106781186547, 0.000000000000000, 0.707106781186548 ) );
#389 = DIRECTION( '', ( -1.00000000000000, -1.41347838783295E-016, 0.000000000000000 ) );
#390 = DIRECTION( '', ( 0.000000000000000, 0.000000000000000, -1.00000000000000 ) );
#391 = DIRECTION( '', ( -1.00000000000000, -1.41347838783295E-016, 0.000000000000000 ) );
#392 = DIRECTION( '', ( 0.000000000000000, 0.000000000000000, -1.00000000000000 ) );
#393 = CARTESIAN_POINT( '', ( 0.000000000000000, 0.000000000000000, 0.000000000000000 ) );
#394 = DIRECTION( '', ( 0.000000000000000, 0.000000000000000, 1.00000000000000 ) );
#395 = DIRECTION( '', ( -1.00000000000000, 0.000000000000000, 0.000000000000000 ) );
#396 = CARTESIAN_POINT( '', ( 0.000000000000000, 0.000000000000000, 35.0000000000000 ) );
#397 = DIRECTION( '', ( 0.000000000000000, 0.000000000000000, 1.00000000000000 ) );
#398 = DIRECTION( '', ( -1.00000000000000, 0.000000000000000, 0.000000000000000 ) );
#399 = DIRECTION( '', ( 0.000000000000000, 0.000000000000000, -1.00000000000000 ) );
#400 = DIRECTION( '', ( 0.707106781186547, 0.000000000000000, 0.707106781186548 ) );
#401 = DIRECTION( '', ( 0.000000000000000, -1.00000000000000, 0.000000000000000 ) );
#402 = DIRECTION( '', ( 0.000000000000000, 1.00000000000000, 0.000000000000000 ) );
#403 = DIRECTION( '', ( 0.000000000000000, -1.00000000000000, 0.000000000000000 ) );
#404 = DIRECTION( '', ( 0.000000000000000, 0.000000000000000, -1.00000000000000 ) );
#405 = DIRECTION( '', ( -0.707106781186547, 4.54309160498777E-018, -0.707106781186548 ) );
#406 = DIRECTION( '', ( 0.000000000000000, 1.00000000000000, 0.000000000000000 ) );
#407 = DIRECTION( '', ( 0.707106781186547, 0.000000000000000, 0.707106781186548 ) );
#408 = DIRECTION( '', ( 0.000000000000000, 1.00000000000000, 0.000000000000000 ) );
#409 = DIRECTION( '', ( -1.00000000000000, 6.42490176287706E-018, 0.000000000000000 ) );
#410 = DIRECTION( '', ( 0.000000000000000, 0.000000000000000, -1.00000000000000 ) );
#411 = DIRECTION( '', ( -1.00000000000000, 6.42490176287706E-018, 0.000000000000000 ) );
#412 = DIRECTION( '', ( 0.000000000000000, 0.000000000000000, -1.00000000000000 ) );
#413 = DIRECTION( '', ( 1.00000000000000, 0.000000000000000, 0.000000000000000 ) );
#414 = CARTESIAN_POINT( '', ( 0.000000000000000, 0.000000000000000, 35.0000000000000 ) );
#415 = DIRECTION( '', ( 0.000000000000000, 0.000000000000000, -1.00000000000000 ) );
#416 = DIRECTION( '', ( -1.00000000000000, 0.000000000000000, 0.000000000000000 ) );
#417 = DIRECTION( '', ( 1.00000000000000, 1.28498035257541E-016, 0.000000000000000 ) );
#418 = CARTESIAN_POINT( '', ( 0.000000000000000, 0.000000000000000, 0.000000000000000 ) );
#419 = DIRECTION( '', ( 0.000000000000000, 0.000000000000000, -1.00000000000000 ) );
#420 = DIRECTION( '', ( -1.00000000000000, 0.000000000000000, 0.000000000000000 ) );
#421 = DIRECTION( '', ( 0.000000000000000, 0.000000000000000, -1.00000000000000 ) );
#422 = DIRECTION( '', ( 1.00000000000000, 1.28498035257541E-016, 0.000000000000000 ) );
#423 = DIRECTION( '', ( 0.000000000000000, -1.00000000000000, 0.000000000000000 ) );
#424 = DIRECTION( '', ( 1.00000000000000, 0.000000000000000, 0.000000000000000 ) );
#425 = DIRECTION( '', ( 0.000000000000000, 0.000000000000000, -1.00000000000000 ) );
ENDSEC;
END-ISO-10303-21;
