ISO-10303-21;
HEADER;
FILE_DESCRIPTION( ( 'Unknown' ), '1' );
FILE_NAME( 'f:/¼È¦s/PT-3D/PT12-3D/PT12C-3028.stp', 'Unknown', ( 'Unknown' ), ( 'Unknown' ), 'XStep 1.0', 'Unknown', '  ' );
FILE_SCHEMA( ( 'CONFIG_CONTROL_DESIGN' ) );
ENDSEC;
DATA;
#1 = DESIGN_CONTEXT( '', #27, 'design' );
#2 = APPLICATION_PROTOCOL_DEFINITION( 'INTERNATIONAL STANDARD', 'config_control_design', 1994, #27 );
#3 = PRODUCT_CATEGORY_RELATIONSHIP( 'NONE', 'NONE', #28, #29 );
#4 = DATE_AND_TIME( #30, #31 );
#5 = DATE_TIME_ROLE( 'creation_date' );
#6 = DATE_TIME_ROLE( 'classification_date' );
#7 = PERSON_AND_ORGANIZATION_ROLE( 'creator' );
#8 = PERSON_AND_ORGANIZATION_ROLE( 'design_supplier' );
#9 = PERSON_AND_ORGANIZATION_ROLE( 'classification_officer' );
#10 = PERSON_AND_ORGANIZATION_ROLE( 'design_owner' );
#11 = APPROVAL_PERSON_ORGANIZATION( #32, #33, #34 );
#12 = APPROVAL_DATE_TIME( #4, #33 );
#13 = CC_DESIGN_APPROVAL( #33, ( #35, #36, #37 ) );
#14 = CC_DESIGN_DATE_AND_TIME_ASSIGNMENT( #4, #5, ( #37 ) );
#15 = CC_DESIGN_DATE_AND_TIME_ASSIGNMENT( #4, #6, ( #35 ) );
#16 = CC_DESIGN_PERSON_AND_ORGANIZATION_ASSIGNMENT( #32, #10, ( #38 ) );
#17 = CC_DESIGN_PERSON_AND_ORGANIZATION_ASSIGNMENT( #32, #7, ( #37 ) );
#18 = CC_DESIGN_PERSON_AND_ORGANIZATION_ASSIGNMENT( #32, #7, ( #36 ) );
#19 = CC_DESIGN_PERSON_AND_ORGANIZATION_ASSIGNMENT( #32, #8, ( #36 ) );
#20 = CC_DESIGN_SECURITY_CLASSIFICATION( #35, ( #36 ) );
#21 = CC_DESIGN_PERSON_AND_ORGANIZATION_ASSIGNMENT( #32, #9, ( #35 ) );
#22 = SHAPE_DEFINITION_REPRESENTATION( #39, #40 );
#23 =  ( GEOMETRIC_REPRESENTATION_CONTEXT( 3 )GLOBAL_UNCERTAINTY_ASSIGNED_CONTEXT( ( #43 ) )GLOBAL_UNIT_ASSIGNED_CONTEXT( ( #45, #46, #47 ) )REPRESENTATION_CONTEXT( 'NONE', 'WORKSPACE' ) );
#27 = APPLICATION_CONTEXT( 'CONFIGURATION CONTROLLED 3D DESIGNS OF MECHANICAL PARTS AND ASSEMBLIES' );
#28 = PRODUCT_CATEGORY( 'part', 'NONE' );
#29 = PRODUCT_RELATED_PRODUCT_CATEGORY( 'detail', ' ', ( #38 ) );
#30 = CALENDAR_DATE( 2009, 9, 10 );
#31 = LOCAL_TIME( 10, 35, 48.0000000000000, #49 );
#32 = PERSON_AND_ORGANIZATION( #50, #51 );
#33 = APPROVAL( #52, 'SOLID MODEL' );
#34 = APPROVAL_ROLE( 'APPROVED' );
#35 = SECURITY_CLASSIFICATION( '', '', #53 );
#36 = PRODUCT_DEFINITION_FORMATION_WITH_SPECIFIED_SOURCE( ' ', 'NONE', #38, .NOT_KNOWN. );
#37 = PRODUCT_DEFINITION( 'NONE', 'NONE', #36, #1 );
#38 = PRODUCT( '1', '1', 'PART-1-DESC', ( #54 ) );
#39 = PRODUCT_DEFINITION_SHAPE( 'NONE', 'NONE', #37 );
#40 = ADVANCED_BREP_SHAPE_REPRESENTATION( '1', ( #55, #56 ), #23 );
#43 = UNCERTAINTY_MEASURE_WITH_UNIT( LENGTH_MEASURE( 0.00100000000000000 ), #45, '', '' );
#45 =  ( CONVERSION_BASED_UNIT( 'MILLIMETRE', #59 )LENGTH_UNIT(  )NAMED_UNIT( #62 ) );
#46 =  ( NAMED_UNIT( #64 )PLANE_ANGLE_UNIT(  )SI_UNIT( $, .RADIAN. ) );
#47 =  ( NAMED_UNIT( #64 )SOLID_ANGLE_UNIT(  )SI_UNIT( $, .STERADIAN. ) );
#49 = COORDINATED_UNIVERSAL_TIME_OFFSET( 8, 0, .AHEAD. );
#50 = PERSON( '', 'UNSPECIFIED', $, $, $, $ );
#51 = ORGANIZATION( 'UNSPECIFIED', 'UNSPECIFIED', 'UNSPECIFIED' );
#52 = APPROVAL_STATUS( 'approved' );
#53 = SECURITY_CLASSIFICATION_LEVEL( 'unclassified' );
#54 = MECHANICAL_CONTEXT( '', #27, 'mechanical' );
#55 = MANIFOLD_SOLID_BREP( '1', #70 );
#56 = AXIS2_PLACEMENT_3D( '', #71, #72, #73 );
#59 = LENGTH_MEASURE_WITH_UNIT( LENGTH_MEASURE( 1.00000000000000 ), #74 );
#62 = DIMENSIONAL_EXPONENTS( 1.00000000000000, 0.000000000000000, 0.000000000000000, 0.000000000000000, 0.000000000000000, 0.000000000000000, 0.000000000000000 );
#64 = DIMENSIONAL_EXPONENTS( 0.000000000000000, 0.000000000000000, 0.000000000000000, 0.000000000000000, 0.000000000000000, 0.000000000000000, 0.000000000000000 );
#70 = CLOSED_SHELL( '', ( #75, #76, #77, #78, #79, #80 ) );
#71 = CARTESIAN_POINT( '', ( 0.000000000000000, 0.000000000000000, 0.000000000000000 ) );
#72 = DIRECTION( '', ( 0.000000000000000, 0.000000000000000, 1.00000000000000 ) );
#73 = DIRECTION( '', ( 1.00000000000000, 0.000000000000000, 0.000000000000000 ) );
#74 =  ( NAMED_UNIT( #62 )LENGTH_UNIT(  )SI_UNIT( .MILLI., .METRE. ) );
#75 = ADVANCED_FACE( '', ( #82, #83 ), #84, .T. );
#76 = ADVANCED_FACE( '', ( #85, #86 ), #87, .T. );
#77 = ADVANCED_FACE( '', ( #88, #89 ), #90, .T. );
#78 = ADVANCED_FACE( '', ( #91, #92 ), #93, .T. );
#79 = ADVANCED_FACE( '', ( #94, #95 ), #96, .T. );
#80 = ADVANCED_FACE( '', ( #97 ), #98, .F. );
#82 = FACE_OUTER_BOUND( '', #99, .T. );
#83 = FACE_OUTER_BOUND( '', #100, .T. );
#84 = CYLINDRICAL_SURFACE( '', #101, 5.00000000000000 );
#85 = FACE_OUTER_BOUND( '', #102, .T. );
#86 = FACE_BOUND( '', #103, .T. );
#87 = CONICAL_SURFACE( '', #104, 707.106781186548, 0.785398163397449 );
#88 = FACE_OUTER_BOUND( '', #105, .T. );
#89 = FACE_OUTER_BOUND( '', #106, .T. );
#90 = CYLINDRICAL_SURFACE( '', #107, 15.0000000000000 );
#91 = FACE_BOUND( '', #108, .T. );
#92 = FACE_OUTER_BOUND( '', #109, .T. );
#93 = PLANE( '', #110 );
#94 = FACE_BOUND( '', #111, .T. );
#95 = FACE_OUTER_BOUND( '', #112, .T. );
#96 = CONICAL_SURFACE( '', #113, 5.00000000000000, 0.785398163397448 );
#97 = FACE_OUTER_BOUND( '', #114, .T. );
#98 = PLANE( '', #115 );
#99 = EDGE_LOOP( '', ( #116 ) );
#100 = EDGE_LOOP( '', ( #117 ) );
#101 = AXIS2_PLACEMENT_3D( '', #118, #119, #120 );
#102 = EDGE_LOOP( '', ( #121 ) );
#103 = VERTEX_LOOP( '', #122 );
#104 = AXIS2_PLACEMENT_3D( '', #123, #124, #125 );
#105 = EDGE_LOOP( '', ( #126 ) );
#106 = EDGE_LOOP( '', ( #127 ) );
#107 = AXIS2_PLACEMENT_3D( '', #128, #129, #130 );
#108 = EDGE_LOOP( '', ( #131 ) );
#109 = EDGE_LOOP( '', ( #132 ) );
#110 = AXIS2_PLACEMENT_3D( '', #133, #134, #135 );
#111 = EDGE_LOOP( '', ( #136 ) );
#112 = EDGE_LOOP( '', ( #137 ) );
#113 = AXIS2_PLACEMENT_3D( '', #138, #139, #140 );
#114 = EDGE_LOOP( '', ( #141 ) );
#115 = AXIS2_PLACEMENT_3D( '', #142, #143, #144 );
#116 = ORIENTED_EDGE( '', *, *, #145, .T. );
#117 = ORIENTED_EDGE( '', *, *, #146, .F. );
#118 = CARTESIAN_POINT( '', ( 0.000000000000000, 0.000000000000000, 10.0000000000000 ) );
#119 = DIRECTION( '', ( -0.000000000000000, -0.000000000000000, 1.00000000000000 ) );
#120 = DIRECTION( '', ( -1.00000000000000, 0.000000000000000, 0.000000000000000 ) );
#121 = ORIENTED_EDGE( '', *, *, #147, .T. );
#122 = VERTEX_POINT( '', #148 );
#123 = CARTESIAN_POINT( '', ( 0.000000000000000, 0.000000000000000, -679.106781186547 ) );
#124 = DIRECTION( '', ( -0.000000000000000, 0.000000000000000, -1.00000000000000 ) );
#125 = DIRECTION( '', ( -1.00000000000000, 0.000000000000000, 0.000000000000000 ) );
#126 = ORIENTED_EDGE( '', *, *, #149, .T. );
#127 = ORIENTED_EDGE( '', *, *, #147, .F. );
#128 = CARTESIAN_POINT( '', ( 0.000000000000000, 0.000000000000000, 54.0000000000000 ) );
#129 = DIRECTION( '', ( -0.000000000000000, -0.000000000000000, -1.00000000000000 ) );
#130 = DIRECTION( '', ( 1.00000000000000, 0.000000000000000, 0.000000000000000 ) );
#131 = ORIENTED_EDGE( '', *, *, #146, .T. );
#132 = ORIENTED_EDGE( '', *, *, #149, .F. );
#133 = CARTESIAN_POINT( '', ( 15.0000000000000, 0.000000000000000, 10.0000000000000 ) );
#134 = DIRECTION( '', ( 0.000000000000000, 0.000000000000000, -1.00000000000000 ) );
#135 = DIRECTION( '', ( -1.00000000000000, 0.000000000000000, 0.000000000000000 ) );
#136 = ORIENTED_EDGE( '', *, *, #150, .F. );
#137 = ORIENTED_EDGE( '', *, *, #145, .F. );
#138 = CARTESIAN_POINT( '', ( 0.000000000000000, 0.000000000000000, 0.500000000000000 ) );
#139 = DIRECTION( '', ( -0.000000000000000, -0.000000000000000, 1.00000000000000 ) );
#140 = DIRECTION( '', ( 1.00000000000000, 0.000000000000000, 0.000000000000000 ) );
#141 = ORIENTED_EDGE( '', *, *, #150, .T. );
#142 = CARTESIAN_POINT( '', ( 0.000000000000000, 0.000000000000000, 0.000000000000000 ) );
#143 = DIRECTION( '', ( 0.000000000000000, 0.000000000000000, 1.00000000000000 ) );
#144 = DIRECTION( '', ( 1.00000000000000, 0.000000000000000, 0.000000000000000 ) );
#145 = EDGE_CURVE( '', #151, #151, #152, .T. );
#146 = EDGE_CURVE( '', #153, #153, #154, .T. );
#147 = EDGE_CURVE( '', #155, #155, #156, .T. );
#148 = CARTESIAN_POINT( '', ( 6.61287431064084E-015, 0.000000000000000, 28.0000000000000 ) );
#149 = EDGE_CURVE( '', #157, #157, #158, .T. );
#150 = EDGE_CURVE( '', #159, #159, #160, .F. );
#151 = VERTEX_POINT( '', #161 );
#152 = CIRCLE( '', #162, 5.00000000000000 );
#153 = VERTEX_POINT( '', #163 );
#154 = CIRCLE( '', #164, 5.00000000000000 );
#155 = VERTEX_POINT( '', #165 );
#156 = CIRCLE( '', #166, 15.0000000000000 );
#157 = VERTEX_POINT( '', #167 );
#158 = CIRCLE( '', #168, 15.0000000000000 );
#159 = VERTEX_POINT( '', #169 );
#160 = CIRCLE( '', #170, 4.50000000000000 );
#161 = CARTESIAN_POINT( '', ( 5.00000000000000, 0.000000000000000, 0.500000000000000 ) );
#162 = AXIS2_PLACEMENT_3D( '', #171, #172, #173 );
#163 = CARTESIAN_POINT( '', ( 5.00000000000000, 0.000000000000000, 10.0000000000000 ) );
#164 = AXIS2_PLACEMENT_3D( '', #174, #175, #176 );
#165 = CARTESIAN_POINT( '', ( 15.0000000000000, 0.000000000000000, 13.0000000000000 ) );
#166 = AXIS2_PLACEMENT_3D( '', #177, #178, #179 );
#167 = CARTESIAN_POINT( '', ( 15.0000000000000, 0.000000000000000, 10.0000000000000 ) );
#168 = AXIS2_PLACEMENT_3D( '', #180, #181, #182 );
#169 = CARTESIAN_POINT( '', ( 4.50000000000000, 0.000000000000000, 0.000000000000000 ) );
#170 = AXIS2_PLACEMENT_3D( '', #183, #184, #185 );
#171 = CARTESIAN_POINT( '', ( 0.000000000000000, 0.000000000000000, 0.500000000000000 ) );
#172 = DIRECTION( '', ( 0.000000000000000, 0.000000000000000, 1.00000000000000 ) );
#173 = DIRECTION( '', ( 1.00000000000000, 0.000000000000000, 0.000000000000000 ) );
#174 = CARTESIAN_POINT( '', ( 0.000000000000000, 0.000000000000000, 10.0000000000000 ) );
#175 = DIRECTION( '', ( 0.000000000000000, 0.000000000000000, 1.00000000000000 ) );
#176 = DIRECTION( '', ( 1.00000000000000, 0.000000000000000, 0.000000000000000 ) );
#177 = CARTESIAN_POINT( '', ( 0.000000000000000, 0.000000000000000, 13.0000000000000 ) );
#178 = DIRECTION( '', ( 0.000000000000000, 0.000000000000000, 1.00000000000000 ) );
#179 = DIRECTION( '', ( 1.00000000000000, 0.000000000000000, 0.000000000000000 ) );
#180 = CARTESIAN_POINT( '', ( 0.000000000000000, 0.000000000000000, 10.0000000000000 ) );
#181 = DIRECTION( '', ( 0.000000000000000, 0.000000000000000, 1.00000000000000 ) );
#182 = DIRECTION( '', ( 1.00000000000000, 0.000000000000000, 0.000000000000000 ) );
#183 = CARTESIAN_POINT( '', ( 0.000000000000000, 0.000000000000000, 0.000000000000000 ) );
#184 = DIRECTION( '', ( 0.000000000000000, 0.000000000000000, 1.00000000000000 ) );
#185 = DIRECTION( '', ( 1.00000000000000, 0.000000000000000, 0.000000000000000 ) );
ENDSEC;
END-ISO-10303-21;
