ISO-10303-21;
HEADER;
FILE_DESCRIPTION( ( 'Unknown' ), '1' );
FILE_NAME( 's:/LEAVE 2D&3D CAD/LEAVE 3D-PAR/Metric/PT/PT13-3D/PT13-1625.stp', 'Unknown', ( 'Unknown' ), ( 'Unknown' ), 'XStep 1.0', 'Unknown', '  ' );
FILE_SCHEMA( ( 'CONFIG_CONTROL_DESIGN' ) );
ENDSEC;
DATA;
#1 = DESIGN_CONTEXT( '', #27, 'design' );
#2 = APPLICATION_PROTOCOL_DEFINITION( 'INTERNATIONAL STANDARD', 'config_control_design', 1994, #27 );
#3 = PRODUCT_CATEGORY_RELATIONSHIP( 'NONE', 'NONE', #28, #29 );
#4 = DATE_AND_TIME( #30, #31 );
#5 = DATE_TIME_ROLE( 'creation_date' );
#6 = DATE_TIME_ROLE( 'classification_date' );
#7 = PERSON_AND_ORGANIZATION_ROLE( 'creator' );
#8 = PERSON_AND_ORGANIZATION_ROLE( 'design_supplier' );
#9 = PERSON_AND_ORGANIZATION_ROLE( 'classification_officer' );
#10 = PERSON_AND_ORGANIZATION_ROLE( 'design_owner' );
#11 = APPROVAL_PERSON_ORGANIZATION( #32, #33, #34 );
#12 = APPROVAL_DATE_TIME( #4, #33 );
#13 = CC_DESIGN_APPROVAL( #33, ( #35, #36, #37 ) );
#14 = CC_DESIGN_DATE_AND_TIME_ASSIGNMENT( #4, #5, ( #37 ) );
#15 = CC_DESIGN_DATE_AND_TIME_ASSIGNMENT( #4, #6, ( #35 ) );
#16 = CC_DESIGN_PERSON_AND_ORGANIZATION_ASSIGNMENT( #32, #10, ( #38 ) );
#17 = CC_DESIGN_PERSON_AND_ORGANIZATION_ASSIGNMENT( #32, #7, ( #37 ) );
#18 = CC_DESIGN_PERSON_AND_ORGANIZATION_ASSIGNMENT( #32, #7, ( #36 ) );
#19 = CC_DESIGN_PERSON_AND_ORGANIZATION_ASSIGNMENT( #32, #8, ( #36 ) );
#20 = CC_DESIGN_SECURITY_CLASSIFICATION( #35, ( #36 ) );
#21 = CC_DESIGN_PERSON_AND_ORGANIZATION_ASSIGNMENT( #32, #9, ( #35 ) );
#22 = SHAPE_DEFINITION_REPRESENTATION( #39, #40 );
#23 =  ( GEOMETRIC_REPRESENTATION_CONTEXT( 3 )GLOBAL_UNCERTAINTY_ASSIGNED_CONTEXT( ( #43 ) )GLOBAL_UNIT_ASSIGNED_CONTEXT( ( #45, #46, #47 ) )REPRESENTATION_CONTEXT( 'NONE', 'WORKSPACE' ) );
#27 = APPLICATION_CONTEXT( 'CONFIGURATION CONTROLLED 3D DESIGNS OF MECHANICAL PARTS AND ASSEMBLIES' );
#28 = PRODUCT_CATEGORY( 'part', 'NONE' );
#29 = PRODUCT_RELATED_PRODUCT_CATEGORY( 'detail', ' ', ( #38 ) );
#30 = CALENDAR_DATE( 2010, 5, 0 );
#31 = LOCAL_TIME( 10, 7, 40.0000000000000, #49 );
#32 = PERSON_AND_ORGANIZATION( #50, #51 );
#33 = APPROVAL( #52, 'SOLID MODEL' );
#34 = APPROVAL_ROLE( 'APPROVED' );
#35 = SECURITY_CLASSIFICATION( '', '', #53 );
#36 = PRODUCT_DEFINITION_FORMATION_WITH_SPECIFIED_SOURCE( ' ', 'NONE', #38, .NOT_KNOWN. );
#37 = PRODUCT_DEFINITION( 'NONE', 'NONE', #36, #1 );
#38 = PRODUCT( '1', '1', 'PART-1-DESC', ( #54 ) );
#39 = PRODUCT_DEFINITION_SHAPE( 'NONE', 'NONE', #37 );
#40 = ADVANCED_BREP_SHAPE_REPRESENTATION( '1', ( #55, #56 ), #23 );
#43 = UNCERTAINTY_MEASURE_WITH_UNIT( LENGTH_MEASURE( 0.00100000000000000 ), #45, '', '' );
#45 =  ( CONVERSION_BASED_UNIT( 'MILLIMETRE', #59 )LENGTH_UNIT(  )NAMED_UNIT( #62 ) );
#46 =  ( NAMED_UNIT( #64 )PLANE_ANGLE_UNIT(  )SI_UNIT( $, .RADIAN. ) );
#47 =  ( NAMED_UNIT( #64 )SOLID_ANGLE_UNIT(  )SI_UNIT( $, .STERADIAN. ) );
#49 = COORDINATED_UNIVERSAL_TIME_OFFSET( 8, 0, .AHEAD. );
#50 = PERSON( '', 'UNSPECIFIED', $, $, $, $ );
#51 = ORGANIZATION( 'UNSPECIFIED', 'UNSPECIFIED', 'UNSPECIFIED' );
#52 = APPROVAL_STATUS( 'approved' );
#53 = SECURITY_CLASSIFICATION_LEVEL( 'unclassified' );
#54 = MECHANICAL_CONTEXT( '', #27, 'mechanical' );
#55 = MANIFOLD_SOLID_BREP( '1', #70 );
#56 = AXIS2_PLACEMENT_3D( '', #71, #72, #73 );
#59 = LENGTH_MEASURE_WITH_UNIT( LENGTH_MEASURE( 1.00000000000000 ), #74 );
#62 = DIMENSIONAL_EXPONENTS( 1.00000000000000, 0.000000000000000, 0.000000000000000, 0.000000000000000, 0.000000000000000, 0.000000000000000, 0.000000000000000 );
#64 = DIMENSIONAL_EXPONENTS( 0.000000000000000, 0.000000000000000, 0.000000000000000, 0.000000000000000, 0.000000000000000, 0.000000000000000, 0.000000000000000 );
#70 = CLOSED_SHELL( '', ( #75, #76, #77, #78, #79, #80, #81, #82, #83, #84, #85, #86 ) );
#71 = CARTESIAN_POINT( '', ( 0.000000000000000, 0.000000000000000, 0.000000000000000 ) );
#72 = DIRECTION( '', ( 0.000000000000000, 0.000000000000000, 1.00000000000000 ) );
#73 = DIRECTION( '', ( 1.00000000000000, 0.000000000000000, 0.000000000000000 ) );
#74 =  ( NAMED_UNIT( #62 )LENGTH_UNIT(  )SI_UNIT( .MILLI., .METRE. ) );
#75 = ADVANCED_FACE( '', ( #88, #89 ), #90, .T. );
#76 = ADVANCED_FACE( '', ( #91, #92 ), #93, .T. );
#77 = ADVANCED_FACE( '', ( #94, #95 ), #96, .F. );
#78 = ADVANCED_FACE( '', ( #97, #98 ), #99, .T. );
#79 = ADVANCED_FACE( '', ( #100, #101 ), #102, .F. );
#80 = ADVANCED_FACE( '', ( #103 ), #104, .T. );
#81 = ADVANCED_FACE( '', ( #105, #106 ), #107, .T. );
#82 = ADVANCED_FACE( '', ( #108, #109 ), #110, .F. );
#83 = ADVANCED_FACE( '', ( #111 ), #112, .F. );
#84 = ADVANCED_FACE( '', ( #113 ), #114, .F. );
#85 = ADVANCED_FACE( '', ( #115 ), #116, .T. );
#86 = ADVANCED_FACE( '', ( #117 ), #118, .T. );
#88 = FACE_OUTER_BOUND( '', #119, .T. );
#89 = FACE_BOUND( '', #120, .T. );
#90 = PLANE( '', #121 );
#91 = FACE_OUTER_BOUND( '', #122, .T. );
#92 = FACE_BOUND( '', #123, .T. );
#93 = CONICAL_SURFACE( '', #124, 13.5000000000000, 0.785398163397448 );
#94 = FACE_OUTER_BOUND( '', #125, .T. );
#95 = FACE_BOUND( '', #126, .T. );
#96 = CONICAL_SURFACE( '', #127, 7.00000000000000, 1.02974425867665 );
#97 = FACE_OUTER_BOUND( '', #128, .T. );
#98 = FACE_OUTER_BOUND( '', #129, .T. );
#99 = CYLINDRICAL_SURFACE( '', #130, 13.0000000000000 );
#100 = FACE_OUTER_BOUND( '', #131, .T. );
#101 = FACE_OUTER_BOUND( '', #132, .T. );
#102 = CYLINDRICAL_SURFACE( '', #133, 7.00000000000000 );
#103 = FACE_OUTER_BOUND( '', #134, .T. );
#104 = PLANE( '', #135 );
#105 = FACE_OUTER_BOUND( '', #136, .T. );
#106 = FACE_OUTER_BOUND( '', #137, .T. );
#107 = CYLINDRICAL_SURFACE( '', #138, 14.0000000000000 );
#108 = FACE_BOUND( '', #139, .T. );
#109 = FACE_OUTER_BOUND( '', #140, .T. );
#110 = PLANE( '', #141 );
#111 = FACE_OUTER_BOUND( '', #142, .T. );
#112 = PLANE( '', #143 );
#113 = FACE_OUTER_BOUND( '', #144, .T. );
#114 = PLANE( '', #145 );
#115 = FACE_OUTER_BOUND( '', #146, .T. );
#116 = PLANE( '', #147 );
#117 = FACE_OUTER_BOUND( '', #148, .T. );
#118 = PLANE( '', #149 );
#119 = EDGE_LOOP( '', ( #150 ) );
#120 = EDGE_LOOP( '', ( #151 ) );
#121 = AXIS2_PLACEMENT_3D( '', #152, #153, #154 );
#122 = EDGE_LOOP( '', ( #155 ) );
#123 = EDGE_LOOP( '', ( #156 ) );
#124 = AXIS2_PLACEMENT_3D( '', #157, #158, #159 );
#125 = EDGE_LOOP( '', ( #160 ) );
#126 = VERTEX_LOOP( '', #161 );
#127 = AXIS2_PLACEMENT_3D( '', #162, #163, #164 );
#128 = EDGE_LOOP( '', ( #165 ) );
#129 = EDGE_LOOP( '', ( #166 ) );
#130 = AXIS2_PLACEMENT_3D( '', #167, #168, #169 );
#131 = EDGE_LOOP( '', ( #170 ) );
#132 = EDGE_LOOP( '', ( #171 ) );
#133 = AXIS2_PLACEMENT_3D( '', #172, #173, #174 );
#134 = EDGE_LOOP( '', ( #175 ) );
#135 = AXIS2_PLACEMENT_3D( '', #176, #177, #178 );
#136 = EDGE_LOOP( '', ( #179 ) );
#137 = EDGE_LOOP( '', ( #180, #181, #182, #183, #184, #185, #186, #187 ) );
#138 = AXIS2_PLACEMENT_3D( '', #188, #189, #190 );
#139 = EDGE_LOOP( '', ( #191 ) );
#140 = EDGE_LOOP( '', ( #192, #193, #194, #195 ) );
#141 = AXIS2_PLACEMENT_3D( '', #196, #197, #198 );
#142 = EDGE_LOOP( '', ( #199, #200 ) );
#143 = AXIS2_PLACEMENT_3D( '', #201, #202, #203 );
#144 = EDGE_LOOP( '', ( #204, #205 ) );
#145 = AXIS2_PLACEMENT_3D( '', #206, #207, #208 );
#146 = EDGE_LOOP( '', ( #209, #210, #211, #212 ) );
#147 = AXIS2_PLACEMENT_3D( '', #213, #214, #215 );
#148 = EDGE_LOOP( '', ( #216, #217, #218, #219 ) );
#149 = AXIS2_PLACEMENT_3D( '', #220, #221, #222 );
#150 = ORIENTED_EDGE( '', *, *, #223, .T. );
#151 = ORIENTED_EDGE( '', *, *, #224, .F. );
#152 = CARTESIAN_POINT( '', ( 0.000000000000000, 0.000000000000000, 23.5000000000000 ) );
#153 = DIRECTION( '', ( 0.000000000000000, 0.000000000000000, 1.00000000000000 ) );
#154 = DIRECTION( '', ( 1.00000000000000, 0.000000000000000, 0.000000000000000 ) );
#155 = ORIENTED_EDGE( '', *, *, #225, .F. );
#156 = ORIENTED_EDGE( '', *, *, #223, .F. );
#157 = CARTESIAN_POINT( '', ( 0.000000000000000, 0.000000000000000, 23.5000000000000 ) );
#158 = DIRECTION( '', ( -0.000000000000000, 0.000000000000000, -1.00000000000000 ) );
#159 = DIRECTION( '', ( -1.00000000000000, 0.000000000000000, 0.000000000000000 ) );
#160 = ORIENTED_EDGE( '', *, *, #226, .F. );
#161 = VERTEX_POINT( '', #227 );
#162 = CARTESIAN_POINT( '', ( 0.000000000000000, 0.000000000000000, 17.0000000000000 ) );
#163 = DIRECTION( '', ( 0.000000000000000, -0.000000000000000, -1.00000000000000 ) );
#164 = DIRECTION( '', ( 0.000000000000000, -1.00000000000000, 0.000000000000000 ) );
#165 = ORIENTED_EDGE( '', *, *, #228, .F. );
#166 = ORIENTED_EDGE( '', *, *, #224, .T. );
#167 = CARTESIAN_POINT( '', ( 0.000000000000000, 0.000000000000000, 25.0000000000000 ) );
#168 = DIRECTION( '', ( -0.000000000000000, -0.000000000000000, 1.00000000000000 ) );
#169 = DIRECTION( '', ( -1.00000000000000, 0.000000000000000, 0.000000000000000 ) );
#170 = ORIENTED_EDGE( '', *, *, #226, .T. );
#171 = ORIENTED_EDGE( '', *, *, #229, .F. );
#172 = CARTESIAN_POINT( '', ( 0.000000000000000, 0.000000000000000, 0.000000000000000 ) );
#173 = DIRECTION( '', ( -0.000000000000000, 0.000000000000000, -1.00000000000000 ) );
#174 = DIRECTION( '', ( 0.000000000000000, 1.00000000000000, 0.000000000000000 ) );
#175 = ORIENTED_EDGE( '', *, *, #228, .T. );
#176 = CARTESIAN_POINT( '', ( 0.000000000000000, 0.000000000000000, 25.0000000000000 ) );
#177 = DIRECTION( '', ( 0.000000000000000, 0.000000000000000, 1.00000000000000 ) );
#178 = DIRECTION( '', ( 1.00000000000000, 0.000000000000000, 0.000000000000000 ) );
#179 = ORIENTED_EDGE( '', *, *, #225, .T. );
#180 = ORIENTED_EDGE( '', *, *, #230, .F. );
#181 = ORIENTED_EDGE( '', *, *, #231, .T. );
#182 = ORIENTED_EDGE( '', *, *, #232, .F. );
#183 = ORIENTED_EDGE( '', *, *, #233, .T. );
#184 = ORIENTED_EDGE( '', *, *, #234, .F. );
#185 = ORIENTED_EDGE( '', *, *, #235, .T. );
#186 = ORIENTED_EDGE( '', *, *, #236, .F. );
#187 = ORIENTED_EDGE( '', *, *, #237, .T. );
#188 = CARTESIAN_POINT( '', ( 0.000000000000000, 0.000000000000000, 16.0000000000000 ) );
#189 = DIRECTION( '', ( -0.000000000000000, -0.000000000000000, 1.00000000000000 ) );
#190 = DIRECTION( '', ( -1.00000000000000, 0.000000000000000, 0.000000000000000 ) );
#191 = ORIENTED_EDGE( '', *, *, #229, .T. );
#192 = ORIENTED_EDGE( '', *, *, #238, .F. );
#193 = ORIENTED_EDGE( '', *, *, #235, .F. );
#194 = ORIENTED_EDGE( '', *, *, #239, .T. );
#195 = ORIENTED_EDGE( '', *, *, #231, .F. );
#196 = CARTESIAN_POINT( '', ( 0.000000000000000, 0.000000000000000, 0.000000000000000 ) );
#197 = DIRECTION( '', ( 0.000000000000000, 0.000000000000000, 1.00000000000000 ) );
#198 = DIRECTION( '', ( 1.00000000000000, 0.000000000000000, 0.000000000000000 ) );
#199 = ORIENTED_EDGE( '', *, *, #240, .F. );
#200 = ORIENTED_EDGE( '', *, *, #233, .F. );
#201 = CARTESIAN_POINT( '', ( 0.000000000000000, 0.000000000000000, 16.0000000000000 ) );
#202 = DIRECTION( '', ( 0.000000000000000, 0.000000000000000, 1.00000000000000 ) );
#203 = DIRECTION( '', ( 1.00000000000000, 0.000000000000000, 0.000000000000000 ) );
#204 = ORIENTED_EDGE( '', *, *, #237, .F. );
#205 = ORIENTED_EDGE( '', *, *, #241, .T. );
#206 = CARTESIAN_POINT( '', ( 0.000000000000000, 0.000000000000000, 16.0000000000000 ) );
#207 = DIRECTION( '', ( 0.000000000000000, 0.000000000000000, 1.00000000000000 ) );
#208 = DIRECTION( '', ( 1.00000000000000, 0.000000000000000, 0.000000000000000 ) );
#209 = ORIENTED_EDGE( '', *, *, #236, .T. );
#210 = ORIENTED_EDGE( '', *, *, #238, .T. );
#211 = ORIENTED_EDGE( '', *, *, #230, .T. );
#212 = ORIENTED_EDGE( '', *, *, #241, .F. );
#213 = CARTESIAN_POINT( '', ( 12.0000000000000, -11.0000000000000, 16.0000000000000 ) );
#214 = DIRECTION( '', ( 1.00000000000000, 0.000000000000000, 0.000000000000000 ) );
#215 = DIRECTION( '', ( 0.000000000000000, 0.000000000000000, -1.00000000000000 ) );
#216 = ORIENTED_EDGE( '', *, *, #232, .T. );
#217 = ORIENTED_EDGE( '', *, *, #239, .F. );
#218 = ORIENTED_EDGE( '', *, *, #234, .T. );
#219 = ORIENTED_EDGE( '', *, *, #240, .T. );
#220 = CARTESIAN_POINT( '', ( -12.0000000000000, -11.0000000000000, 0.000000000000000 ) );
#221 = DIRECTION( '', ( -1.00000000000000, 0.000000000000000, 0.000000000000000 ) );
#222 = DIRECTION( '', ( 0.000000000000000, 0.000000000000000, 1.00000000000000 ) );
#223 = EDGE_CURVE( '', #242, #242, #243, .T. );
#224 = EDGE_CURVE( '', #244, #244, #245, .T. );
#225 = EDGE_CURVE( '', #246, #246, #247, .F. );
#226 = EDGE_CURVE( '', #248, #248, #249, .T. );
#227 = CARTESIAN_POINT( '', ( 0.000000000000000, 0.000000000000000, 21.2060243331930 ) );
#228 = EDGE_CURVE( '', #250, #250, #251, .T. );
#229 = EDGE_CURVE( '', #252, #252, #253, .T. );
#230 = EDGE_CURVE( '', #254, #255, #256, .F. );
#231 = EDGE_CURVE( '', #254, #257, #258, .T. );
#232 = EDGE_CURVE( '', #259, #257, #260, .T. );
#233 = EDGE_CURVE( '', #259, #261, #262, .T. );
#234 = EDGE_CURVE( '', #263, #261, #264, .F. );
#235 = EDGE_CURVE( '', #263, #265, #266, .T. );
#236 = EDGE_CURVE( '', #267, #265, #268, .T. );
#237 = EDGE_CURVE( '', #267, #255, #269, .T. );
#238 = EDGE_CURVE( '', #265, #254, #270, .T. );
#239 = EDGE_CURVE( '', #263, #257, #271, .T. );
#240 = EDGE_CURVE( '', #261, #259, #272, .T. );
#241 = EDGE_CURVE( '', #267, #255, #273, .T. );
#242 = VERTEX_POINT( '', #274 );
#243 = CIRCLE( '', #275, 13.5000000000000 );
#244 = VERTEX_POINT( '', #276 );
#245 = CIRCLE( '', #277, 13.0000000000000 );
#246 = VERTEX_POINT( '', #278 );
#247 = CIRCLE( '', #279, 14.0000000000000 );
#248 = VERTEX_POINT( '', #280 );
#249 = CIRCLE( '', #281, 7.00000000000000 );
#250 = VERTEX_POINT( '', #282 );
#251 = CIRCLE( '', #283, 13.0000000000000 );
#252 = VERTEX_POINT( '', #284 );
#253 = CIRCLE( '', #285, 7.00000000000000 );
#254 = VERTEX_POINT( '', #286 );
#255 = VERTEX_POINT( '', #287 );
#256 = LINE( '', #288, #289 );
#257 = VERTEX_POINT( '', #290 );
#258 = CIRCLE( '', #291, 14.0000000000000 );
#259 = VERTEX_POINT( '', #292 );
#260 = LINE( '', #293, #294 );
#261 = VERTEX_POINT( '', #295 );
#262 = CIRCLE( '', #296, 14.0000000000000 );
#263 = VERTEX_POINT( '', #297 );
#264 = LINE( '', #298, #299 );
#265 = VERTEX_POINT( '', #300 );
#266 = CIRCLE( '', #301, 14.0000000000000 );
#267 = VERTEX_POINT( '', #302 );
#268 = LINE( '', #303, #304 );
#269 = CIRCLE( '', #305, 14.0000000000000 );
#270 = LINE( '', #306, #307 );
#271 = LINE( '', #308, #309 );
#272 = LINE( '', #310, #311 );
#273 = LINE( '', #312, #313 );
#274 = CARTESIAN_POINT( '', ( 13.5000000000000, 0.000000000000000, 23.5000000000000 ) );
#275 = AXIS2_PLACEMENT_3D( '', #314, #315, #316 );
#276 = CARTESIAN_POINT( '', ( 0.000000000000000, 13.0000000000000, 23.5000000000000 ) );
#277 = AXIS2_PLACEMENT_3D( '', #317, #318, #319 );
#278 = CARTESIAN_POINT( '', ( 14.0000000000000, 0.000000000000000, 23.0000000000000 ) );
#279 = AXIS2_PLACEMENT_3D( '', #320, #321, #322 );
#280 = CARTESIAN_POINT( '', ( 0.000000000000000, -7.00000000000000, 17.0000000000000 ) );
#281 = AXIS2_PLACEMENT_3D( '', #323, #324, #325 );
#282 = CARTESIAN_POINT( '', ( 0.000000000000000, 13.0000000000000, 25.0000000000000 ) );
#283 = AXIS2_PLACEMENT_3D( '', #326, #327, #328 );
#284 = CARTESIAN_POINT( '', ( 0.000000000000000, 7.00000000000000, 0.000000000000000 ) );
#285 = AXIS2_PLACEMENT_3D( '', #329, #330, #331 );
#286 = CARTESIAN_POINT( '', ( 12.0000000000000, 7.21110255092798, 0.000000000000000 ) );
#287 = CARTESIAN_POINT( '', ( 12.0000000000000, 7.21110255092798, 16.0000000000000 ) );
#288 = CARTESIAN_POINT( '', ( 12.0000000000000, 7.21110255092798, 16.0000000000000 ) );
#289 = VECTOR( '', #332, 1000.00000000000 );
#290 = CARTESIAN_POINT( '', ( -12.0000000000000, 7.21110255092798, 0.000000000000000 ) );
#291 = AXIS2_PLACEMENT_3D( '', #333, #334, #335 );
#292 = CARTESIAN_POINT( '', ( -12.0000000000000, 7.21110255092798, 16.0000000000000 ) );
#293 = CARTESIAN_POINT( '', ( -12.0000000000000, 7.21110255092798, 16.0000000000000 ) );
#294 = VECTOR( '', #336, 1000.00000000000 );
#295 = CARTESIAN_POINT( '', ( -12.0000000000000, -7.21110255092798, 16.0000000000000 ) );
#296 = AXIS2_PLACEMENT_3D( '', #337, #338, #339 );
#297 = CARTESIAN_POINT( '', ( -12.0000000000000, -7.21110255092798, 0.000000000000000 ) );
#298 = CARTESIAN_POINT( '', ( -12.0000000000000, -7.21110255092798, 16.0000000000000 ) );
#299 = VECTOR( '', #340, 1000.00000000000 );
#300 = CARTESIAN_POINT( '', ( 12.0000000000000, -7.21110255092798, 0.000000000000000 ) );
#301 = AXIS2_PLACEMENT_3D( '', #341, #342, #343 );
#302 = CARTESIAN_POINT( '', ( 12.0000000000000, -7.21110255092798, 16.0000000000000 ) );
#303 = CARTESIAN_POINT( '', ( 12.0000000000000, -7.21110255092798, 16.0000000000000 ) );
#304 = VECTOR( '', #344, 1000.00000000000 );
#305 = AXIS2_PLACEMENT_3D( '', #345, #346, #347 );
#306 = CARTESIAN_POINT( '', ( 12.0000000000000, -11.0000000000000, 0.000000000000000 ) );
#307 = VECTOR( '', #348, 1000.00000000000 );
#308 = CARTESIAN_POINT( '', ( -12.0000000000000, -11.0000000000000, 0.000000000000000 ) );
#309 = VECTOR( '', #349, 1000.00000000000 );
#310 = CARTESIAN_POINT( '', ( -12.0000000000000, -11.0000000000000, 16.0000000000000 ) );
#311 = VECTOR( '', #350, 1000.00000000000 );
#312 = CARTESIAN_POINT( '', ( 12.0000000000000, -11.0000000000000, 16.0000000000000 ) );
#313 = VECTOR( '', #351, 1000.00000000000 );
#314 = CARTESIAN_POINT( '', ( 0.000000000000000, 0.000000000000000, 23.5000000000000 ) );
#315 = DIRECTION( '', ( 0.000000000000000, 0.000000000000000, 1.00000000000000 ) );
#316 = DIRECTION( '', ( 1.00000000000000, 0.000000000000000, 0.000000000000000 ) );
#317 = CARTESIAN_POINT( '', ( 0.000000000000000, 0.000000000000000, 23.5000000000000 ) );
#318 = DIRECTION( '', ( 0.000000000000000, -0.000000000000000, 1.00000000000000 ) );
#319 = DIRECTION( '', ( 0.000000000000000, 1.00000000000000, 0.000000000000000 ) );
#320 = CARTESIAN_POINT( '', ( 0.000000000000000, 0.000000000000000, 23.0000000000000 ) );
#321 = DIRECTION( '', ( 0.000000000000000, 0.000000000000000, 1.00000000000000 ) );
#322 = DIRECTION( '', ( 1.00000000000000, 0.000000000000000, 0.000000000000000 ) );
#323 = CARTESIAN_POINT( '', ( 0.000000000000000, 0.000000000000000, 17.0000000000000 ) );
#324 = DIRECTION( '', ( 0.000000000000000, 0.000000000000000, 1.00000000000000 ) );
#325 = DIRECTION( '', ( 0.000000000000000, -1.00000000000000, 0.000000000000000 ) );
#326 = CARTESIAN_POINT( '', ( 0.000000000000000, 0.000000000000000, 25.0000000000000 ) );
#327 = DIRECTION( '', ( 0.000000000000000, -0.000000000000000, 1.00000000000000 ) );
#328 = DIRECTION( '', ( 0.000000000000000, 1.00000000000000, 0.000000000000000 ) );
#329 = CARTESIAN_POINT( '', ( 0.000000000000000, 0.000000000000000, 0.000000000000000 ) );
#330 = DIRECTION( '', ( 0.000000000000000, -0.000000000000000, 1.00000000000000 ) );
#331 = DIRECTION( '', ( 0.000000000000000, 1.00000000000000, 0.000000000000000 ) );
#332 = DIRECTION( '', ( 0.000000000000000, 0.000000000000000, -1.00000000000000 ) );
#333 = CARTESIAN_POINT( '', ( 0.000000000000000, 0.000000000000000, 0.000000000000000 ) );
#334 = DIRECTION( '', ( 0.000000000000000, 0.000000000000000, 1.00000000000000 ) );
#335 = DIRECTION( '', ( 1.00000000000000, 0.000000000000000, 0.000000000000000 ) );
#336 = DIRECTION( '', ( 0.000000000000000, 0.000000000000000, -1.00000000000000 ) );
#337 = CARTESIAN_POINT( '', ( 0.000000000000000, 0.000000000000000, 16.0000000000000 ) );
#338 = DIRECTION( '', ( 0.000000000000000, -0.000000000000000, 1.00000000000000 ) );
#339 = DIRECTION( '', ( 0.000000000000000, 1.00000000000000, 0.000000000000000 ) );
#340 = DIRECTION( '', ( 0.000000000000000, 0.000000000000000, -1.00000000000000 ) );
#341 = CARTESIAN_POINT( '', ( 0.000000000000000, 0.000000000000000, 0.000000000000000 ) );
#342 = DIRECTION( '', ( 0.000000000000000, 0.000000000000000, 1.00000000000000 ) );
#343 = DIRECTION( '', ( 1.00000000000000, 0.000000000000000, 0.000000000000000 ) );
#344 = DIRECTION( '', ( 0.000000000000000, 0.000000000000000, -1.00000000000000 ) );
#345 = CARTESIAN_POINT( '', ( 0.000000000000000, 0.000000000000000, 16.0000000000000 ) );
#346 = DIRECTION( '', ( 0.000000000000000, -0.000000000000000, 1.00000000000000 ) );
#347 = DIRECTION( '', ( 0.000000000000000, 1.00000000000000, 0.000000000000000 ) );
#348 = DIRECTION( '', ( 0.000000000000000, 1.00000000000000, 0.000000000000000 ) );
#349 = DIRECTION( '', ( 0.000000000000000, 1.00000000000000, 0.000000000000000 ) );
#350 = DIRECTION( '', ( 0.000000000000000, 1.00000000000000, 0.000000000000000 ) );
#351 = DIRECTION( '', ( 0.000000000000000, 1.00000000000000, 0.000000000000000 ) );
ENDSEC;
END-ISO-10303-21;
