ISO-10303-21;
HEADER;
FILE_DESCRIPTION( ( 'Unknown' ), '1' );
FILE_NAME( 'S:/LEAVE 2D&3D CAD/LEAVE 3D-STEP/Metric/PT-3D/PT50-3D/PT50-0813.stp', 'Unknown', ( 'Unknown' ), ( 'Unknown' ), 'PSStep 16.0.42', 'Unknown', '  ' );
FILE_SCHEMA( ( 'AUTOMOTIVE_DESIGN { 1 0 10303 214 1 1 1 1 }' ) );
ENDSEC;
DATA;
#1 = MECHANICAL_DESIGN_GEOMETRIC_PRESENTATION_REPRESENTATION( ' ', ( #10, #11, #12, #13, #14, #15, #16, #17, #18, #19, #20, #21, #22, #23 ), #6 );
#2 = PRODUCT_DEFINITION_CONTEXT( '', #24, 'design' );
#3 = APPLICATION_PROTOCOL_DEFINITION( 'international standard', 'automotive_design', 2001, #24 );
#4 = PRODUCT_CATEGORY_RELATIONSHIP( 'NONE', 'NONE', #25, #26 );
#5 = SHAPE_DEFINITION_REPRESENTATION( #27, #28 );
#6 =  ( GEOMETRIC_REPRESENTATION_CONTEXT( 3 )GLOBAL_UNCERTAINTY_ASSIGNED_CONTEXT( ( #31 ) )GLOBAL_UNIT_ASSIGNED_CONTEXT( ( #33, #34, #35 ) )REPRESENTATION_CONTEXT( 'NONE', 'WORKSPACE' ) );
#10 = STYLED_ITEM( '', ( #37 ), #38 );
#11 = STYLED_ITEM( '', ( #39 ), #40 );
#12 = STYLED_ITEM( '', ( #41 ), #42 );
#13 = STYLED_ITEM( '', ( #43 ), #44 );
#14 = STYLED_ITEM( '', ( #45 ), #46 );
#15 = STYLED_ITEM( '', ( #47 ), #48 );
#16 = STYLED_ITEM( '', ( #49 ), #50 );
#17 = STYLED_ITEM( '', ( #51 ), #52 );
#18 = STYLED_ITEM( '', ( #53 ), #54 );
#19 = STYLED_ITEM( '', ( #55 ), #56 );
#20 = STYLED_ITEM( '', ( #57 ), #58 );
#21 = STYLED_ITEM( '', ( #59 ), #60 );
#22 = STYLED_ITEM( '', ( #61 ), #62 );
#23 = STYLED_ITEM( '', ( #63 ), #64 );
#24 = APPLICATION_CONTEXT( 'core data for automotive mechanical design processes' );
#25 = PRODUCT_CATEGORY( 'part', 'NONE' );
#26 = PRODUCT_RELATED_PRODUCT_CATEGORY( 'detail', ' ', ( #65 ) );
#27 = PRODUCT_DEFINITION_SHAPE( 'NONE', 'NONE', #66 );
#28 = ADVANCED_BREP_SHAPE_REPRESENTATION( '1', ( #67, #68 ), #6 );
#31 = UNCERTAINTY_MEASURE_WITH_UNIT( LENGTH_MEASURE( 0.00100000000000000 ), #33, '', '' );
#33 =  ( CONVERSION_BASED_UNIT( 'MILLIMETRE', #71 )LENGTH_UNIT(  )NAMED_UNIT( #74 ) );
#34 =  ( NAMED_UNIT( #76 )PLANE_ANGLE_UNIT(  )SI_UNIT( $, .RADIAN. ) );
#35 =  ( NAMED_UNIT( #76 )SI_UNIT( $, .STERADIAN. )SOLID_ANGLE_UNIT(  ) );
#37 = PRESENTATION_STYLE_ASSIGNMENT( ( #82 ) );
#38 = ADVANCED_FACE( '', ( #83, #84 ), #85, .T. );
#39 = PRESENTATION_STYLE_ASSIGNMENT( ( #86 ) );
#40 = ADVANCED_FACE( '', ( #87, #88 ), #89, .T. );
#41 = PRESENTATION_STYLE_ASSIGNMENT( ( #90 ) );
#42 = ADVANCED_FACE( '', ( #91 ), #92, .T. );
#43 = PRESENTATION_STYLE_ASSIGNMENT( ( #93 ) );
#44 = ADVANCED_FACE( '', ( #94 ), #95, .F. );
#45 = PRESENTATION_STYLE_ASSIGNMENT( ( #96 ) );
#46 = ADVANCED_FACE( '', ( #97 ), #98, .T. );
#47 = PRESENTATION_STYLE_ASSIGNMENT( ( #99 ) );
#48 = ADVANCED_FACE( '', ( #100 ), #101, .T. );
#49 = PRESENTATION_STYLE_ASSIGNMENT( ( #102 ) );
#50 = ADVANCED_FACE( '', ( #103, #104 ), #105, .T. );
#51 = PRESENTATION_STYLE_ASSIGNMENT( ( #106 ) );
#52 = ADVANCED_FACE( '', ( #107, #108 ), #109, .T. );
#53 = PRESENTATION_STYLE_ASSIGNMENT( ( #110 ) );
#54 = ADVANCED_FACE( '', ( #111, #112 ), #113, .T. );
#55 = PRESENTATION_STYLE_ASSIGNMENT( ( #114 ) );
#56 = ADVANCED_FACE( '', ( #115, #116 ), #117, .T. );
#57 = PRESENTATION_STYLE_ASSIGNMENT( ( #118 ) );
#58 = ADVANCED_FACE( '', ( #119, #120 ), #121, .T. );
#59 = PRESENTATION_STYLE_ASSIGNMENT( ( #122 ) );
#60 = ADVANCED_FACE( '', ( #123 ), #124, .T. );
#61 = PRESENTATION_STYLE_ASSIGNMENT( ( #125 ) );
#62 = ADVANCED_FACE( '', ( #126 ), #127, .T. );
#63 = PRESENTATION_STYLE_ASSIGNMENT( ( #128 ) );
#64 = ADVANCED_FACE( '', ( #129, #130 ), #131, .F. );
#65 = PRODUCT( '1', '1', 'PART-1-DESC', ( #132 ) );
#66 = PRODUCT_DEFINITION( 'NONE', 'NONE', #133, #2 );
#67 = MANIFOLD_SOLID_BREP( '1', #134 );
#68 = AXIS2_PLACEMENT_3D( '', #135, #136, #137 );
#71 = LENGTH_MEASURE_WITH_UNIT( LENGTH_MEASURE( 1.00000000000000 ), #138 );
#74 = DIMENSIONAL_EXPONENTS( 1.00000000000000, 0.000000000000000, 0.000000000000000, 0.000000000000000, 0.000000000000000, 0.000000000000000, 0.000000000000000 );
#76 = DIMENSIONAL_EXPONENTS( 0.000000000000000, 0.000000000000000, 0.000000000000000, 0.000000000000000, 0.000000000000000, 0.000000000000000, 0.000000000000000 );
#82 = SURFACE_STYLE_USAGE( .BOTH., #139 );
#83 = FACE_BOUND( '', #140, .T. );
#84 = FACE_OUTER_BOUND( '', #141, .T. );
#85 = CONICAL_SURFACE( '', #142, 6.50000000000000, 0.785398163397444 );
#86 = SURFACE_STYLE_USAGE( .BOTH., #143 );
#87 = FACE_OUTER_BOUND( '', #144, .T. );
#88 = FACE_OUTER_BOUND( '', #145, .T. );
#89 = CYLINDRICAL_SURFACE( '', #146, 6.50000000000000 );
#90 = SURFACE_STYLE_USAGE( .BOTH., #147 );
#91 = FACE_OUTER_BOUND( '', #148, .T. );
#92 = PLANE( '', #149 );
#93 = SURFACE_STYLE_USAGE( .BOTH., #150 );
#94 = FACE_OUTER_BOUND( '', #151, .T. );
#95 = PLANE( '', #152 );
#96 = SURFACE_STYLE_USAGE( .BOTH., #153 );
#97 = FACE_OUTER_BOUND( '', #154, .T. );
#98 = PLANE( '', #155 );
#99 = SURFACE_STYLE_USAGE( .BOTH., #156 );
#100 = FACE_OUTER_BOUND( '', #157, .T. );
#101 = PLANE( '', #158 );
#102 = SURFACE_STYLE_USAGE( .BOTH., #159 );
#103 = FACE_BOUND( '', #160, .T. );
#104 = FACE_OUTER_BOUND( '', #161, .T. );
#105 = CONICAL_SURFACE( '', #162, 5.54630228668835, 0.226892802759265 );
#106 = SURFACE_STYLE_USAGE( .BOTH., #163 );
#107 = FACE_BOUND( '', #164, .T. );
#108 = FACE_OUTER_BOUND( '', #165, .T. );
#109 = CONICAL_SURFACE( '', #166, 4.00000000000000, 0.785398163397448 );
#110 = SURFACE_STYLE_USAGE( .BOTH., #167 );
#111 = FACE_OUTER_BOUND( '', #168, .T. );
#112 = FACE_OUTER_BOUND( '', #169, .T. );
#113 = SPHERICAL_SURFACE( '', #170, 5.00000000000000 );
#114 = SURFACE_STYLE_USAGE( .BOTH., #171 );
#115 = FACE_BOUND( '', #172, .T. );
#116 = FACE_OUTER_BOUND( '', #173, .T. );
#117 = PLANE( '', #174 );
#118 = SURFACE_STYLE_USAGE( .BOTH., #175 );
#119 = FACE_OUTER_BOUND( '', #176, .T. );
#120 = FACE_OUTER_BOUND( '', #177, .T. );
#121 = CYLINDRICAL_SURFACE( '', #178, 4.00000000000000 );
#122 = SURFACE_STYLE_USAGE( .BOTH., #179 );
#123 = FACE_OUTER_BOUND( '', #180, .T. );
#124 = PLANE( '', #181 );
#125 = SURFACE_STYLE_USAGE( .BOTH., #182 );
#126 = FACE_OUTER_BOUND( '', #183, .T. );
#127 = PLANE( '', #184 );
#128 = SURFACE_STYLE_USAGE( .BOTH., #185 );
#129 = FACE_BOUND( '', #186, .T. );
#130 = FACE_OUTER_BOUND( '', #187, .T. );
#131 = PLANE( '', #188 );
#132 = PRODUCT_CONTEXT( '', #24, 'mechanical' );
#133 = PRODUCT_DEFINITION_FORMATION_WITH_SPECIFIED_SOURCE( ' ', 'NONE', #65, .NOT_KNOWN. );
#134 = CLOSED_SHELL( '', ( #54, #48, #60, #40, #64, #56, #38, #50, #58, #44, #62, #42, #46, #52 ) );
#135 = CARTESIAN_POINT( '', ( 0.000000000000000, 0.000000000000000, 0.000000000000000 ) );
#136 = DIRECTION( '', ( 0.000000000000000, 0.000000000000000, 1.00000000000000 ) );
#137 = DIRECTION( '', ( 1.00000000000000, 0.000000000000000, 0.000000000000000 ) );
#138 =  ( LENGTH_UNIT(  )NAMED_UNIT( #74 )SI_UNIT( .MILLI., .METRE. ) );
#139 = SURFACE_SIDE_STYLE( '', ( #190 ) );
#140 = EDGE_LOOP( '', ( #191 ) );
#141 = EDGE_LOOP( '', ( #192 ) );
#142 = AXIS2_PLACEMENT_3D( '', #193, #194, #195 );
#143 = SURFACE_SIDE_STYLE( '', ( #196 ) );
#144 = EDGE_LOOP( '', ( #197 ) );
#145 = EDGE_LOOP( '', ( #198, #199, #200, #201, #202, #203, #204, #205 ) );
#146 = AXIS2_PLACEMENT_3D( '', #206, #207, #208 );
#147 = SURFACE_SIDE_STYLE( '', ( #209 ) );
#148 = EDGE_LOOP( '', ( #210, #211 ) );
#149 = AXIS2_PLACEMENT_3D( '', #212, #213, #214 );
#150 = SURFACE_SIDE_STYLE( '', ( #215 ) );
#151 = EDGE_LOOP( '', ( #216 ) );
#152 = AXIS2_PLACEMENT_3D( '', #217, #218, #219 );
#153 = SURFACE_SIDE_STYLE( '', ( #220 ) );
#154 = EDGE_LOOP( '', ( #221, #222 ) );
#155 = AXIS2_PLACEMENT_3D( '', #223, #224, #225 );
#156 = SURFACE_SIDE_STYLE( '', ( #226 ) );
#157 = EDGE_LOOP( '', ( #227 ) );
#158 = AXIS2_PLACEMENT_3D( '', #228, #229, #230 );
#159 = SURFACE_SIDE_STYLE( '', ( #231 ) );
#160 = EDGE_LOOP( '', ( #232 ) );
#161 = EDGE_LOOP( '', ( #233 ) );
#162 = AXIS2_PLACEMENT_3D( '', #234, #235, #236 );
#163 = SURFACE_SIDE_STYLE( '', ( #237 ) );
#164 = EDGE_LOOP( '', ( #238 ) );
#165 = EDGE_LOOP( '', ( #239 ) );
#166 = AXIS2_PLACEMENT_3D( '', #240, #241, #242 );
#167 = SURFACE_SIDE_STYLE( '', ( #243 ) );
#168 = EDGE_LOOP( '', ( #244 ) );
#169 = EDGE_LOOP( '', ( #245 ) );
#170 = AXIS2_PLACEMENT_3D( '', #246, #247, #248 );
#171 = SURFACE_SIDE_STYLE( '', ( #249 ) );
#172 = EDGE_LOOP( '', ( #250 ) );
#173 = EDGE_LOOP( '', ( #251 ) );
#174 = AXIS2_PLACEMENT_3D( '', #252, #253, #254 );
#175 = SURFACE_SIDE_STYLE( '', ( #255 ) );
#176 = EDGE_LOOP( '', ( #256 ) );
#177 = EDGE_LOOP( '', ( #257 ) );
#178 = AXIS2_PLACEMENT_3D( '', #258, #259, #260 );
#179 = SURFACE_SIDE_STYLE( '', ( #261 ) );
#180 = EDGE_LOOP( '', ( #262, #263, #264, #265 ) );
#181 = AXIS2_PLACEMENT_3D( '', #266, #267, #268 );
#182 = SURFACE_SIDE_STYLE( '', ( #269 ) );
#183 = EDGE_LOOP( '', ( #270, #271, #272, #273 ) );
#184 = AXIS2_PLACEMENT_3D( '', #274, #275, #276 );
#185 = SURFACE_SIDE_STYLE( '', ( #277 ) );
#186 = EDGE_LOOP( '', ( #278 ) );
#187 = EDGE_LOOP( '', ( #279, #280, #281, #282 ) );
#188 = AXIS2_PLACEMENT_3D( '', #283, #284, #285 );
#190 = SURFACE_STYLE_FILL_AREA( #286 );
#191 = ORIENTED_EDGE( '', *, *, #287, .T. );
#192 = ORIENTED_EDGE( '', *, *, #288, .F. );
#193 = CARTESIAN_POINT( '', ( 0.000000000000000, 0.000000000000000, 8.94630228668834 ) );
#194 = DIRECTION( '', ( -0.000000000000000, 0.000000000000000, -1.00000000000000 ) );
#195 = DIRECTION( '', ( -1.00000000000000, 0.000000000000000, 0.000000000000000 ) );
#196 = SURFACE_STYLE_FILL_AREA( #289 );
#197 = ORIENTED_EDGE( '', *, *, #288, .T. );
#198 = ORIENTED_EDGE( '', *, *, #290, .F. );
#199 = ORIENTED_EDGE( '', *, *, #291, .F. );
#200 = ORIENTED_EDGE( '', *, *, #292, .F. );
#201 = ORIENTED_EDGE( '', *, *, #293, .T. );
#202 = ORIENTED_EDGE( '', *, *, #294, .F. );
#203 = ORIENTED_EDGE( '', *, *, #295, .F. );
#204 = ORIENTED_EDGE( '', *, *, #296, .F. );
#205 = ORIENTED_EDGE( '', *, *, #297, .T. );
#206 = CARTESIAN_POINT( '', ( 6.93889390390723E-015, 0.000000000000000, 11.4000000000000 ) );
#207 = DIRECTION( '', ( -0.000000000000000, -0.000000000000000, 1.00000000000000 ) );
#208 = DIRECTION( '', ( -1.00000000000000, 0.000000000000000, 0.000000000000000 ) );
#209 = SURFACE_STYLE_FILL_AREA( #298 );
#210 = ORIENTED_EDGE( '', *, *, #299, .T. );
#211 = ORIENTED_EDGE( '', *, *, #295, .T. );
#212 = CARTESIAN_POINT( '', ( 6.50000000000000, -6.50000000000000, 5.80000000000000 ) );
#213 = DIRECTION( '', ( 0.000000000000000, 0.000000000000000, -1.00000000000000 ) );
#214 = DIRECTION( '', ( -1.00000000000000, 0.000000000000000, 0.000000000000000 ) );
#215 = SURFACE_STYLE_FILL_AREA( #300 );
#216 = ORIENTED_EDGE( '', *, *, #301, .T. );
#217 = CARTESIAN_POINT( '', ( 0.000000000000000, 0.000000000000000, -8.00000000000000 ) );
#218 = DIRECTION( '', ( 0.000000000000000, 0.000000000000000, 1.00000000000000 ) );
#219 = DIRECTION( '', ( 1.00000000000000, 0.000000000000000, 0.000000000000000 ) );
#220 = SURFACE_STYLE_FILL_AREA( #302 );
#221 = ORIENTED_EDGE( '', *, *, #291, .T. );
#222 = ORIENTED_EDGE( '', *, *, #303, .F. );
#223 = CARTESIAN_POINT( '', ( -5.50000000000000, -6.50000000000000, 5.80000000000000 ) );
#224 = DIRECTION( '', ( 0.000000000000000, 0.000000000000000, -1.00000000000000 ) );
#225 = DIRECTION( '', ( -1.00000000000000, 0.000000000000000, 0.000000000000000 ) );
#226 = SURFACE_STYLE_FILL_AREA( #304 );
#227 = ORIENTED_EDGE( '', *, *, #305, .T. );
#228 = CARTESIAN_POINT( '', ( 3.57071421427143, 0.000000000000000, 13.0000000000000 ) );
#229 = DIRECTION( '', ( -1.24719410340319E-016, 0.000000000000000, 1.00000000000000 ) );
#230 = DIRECTION( '', ( 1.00000000000000, 0.000000000000000, 1.24719410340319E-016 ) );
#231 = SURFACE_STYLE_FILL_AREA( #306 );
#232 = ORIENTED_EDGE( '', *, *, #307, .T. );
#233 = ORIENTED_EDGE( '', *, *, #287, .F. );
#234 = CARTESIAN_POINT( '', ( 0.000000000000000, 0.000000000000000, 9.90000000000000 ) );
#235 = DIRECTION( '', ( -0.000000000000000, 0.000000000000000, -1.00000000000000 ) );
#236 = DIRECTION( '', ( -1.00000000000000, 0.000000000000000, 0.000000000000000 ) );
#237 = SURFACE_STYLE_FILL_AREA( #308 );
#238 = ORIENTED_EDGE( '', *, *, #301, .F. );
#239 = ORIENTED_EDGE( '', *, *, #309, .F. );
#240 = CARTESIAN_POINT( '', ( 0.000000000000000, 0.000000000000000, -6.80000000000000 ) );
#241 = DIRECTION( '', ( -0.000000000000000, -0.000000000000000, 1.00000000000000 ) );
#242 = DIRECTION( '', ( 1.00000000000000, 0.000000000000000, 0.000000000000000 ) );
#243 = SURFACE_STYLE_FILL_AREA( #310 );
#244 = ORIENTED_EDGE( '', *, *, #311, .T. );
#245 = ORIENTED_EDGE( '', *, *, #305, .F. );
#246 = CARTESIAN_POINT( '', ( 5.44967825620572E-015, 0.000000000000000, 9.50000000000000 ) );
#247 = DIRECTION( '', ( -1.24719410340319E-016, 0.000000000000000, 1.00000000000000 ) );
#248 = DIRECTION( '', ( 1.00000000000000, 0.000000000000000, 1.24719410340319E-016 ) );
#249 = SURFACE_STYLE_FILL_AREA( #312 );
#250 = ORIENTED_EDGE( '', *, *, #311, .F. );
#251 = ORIENTED_EDGE( '', *, *, #307, .F. );
#252 = CARTESIAN_POINT( '', ( 6.93889390390723E-015, 0.000000000000000, 11.4000000000000 ) );
#253 = DIRECTION( '', ( 0.000000000000000, 0.000000000000000, 1.00000000000000 ) );
#254 = DIRECTION( '', ( 1.00000000000000, 0.000000000000000, 0.000000000000000 ) );
#255 = SURFACE_STYLE_FILL_AREA( #313 );
#256 = ORIENTED_EDGE( '', *, *, #309, .T. );
#257 = ORIENTED_EDGE( '', *, *, #314, .F. );
#258 = CARTESIAN_POINT( '', ( 0.000000000000000, 0.000000000000000, -8.00000000000000 ) );
#259 = DIRECTION( '', ( -0.000000000000000, -0.000000000000000, -1.00000000000000 ) );
#260 = DIRECTION( '', ( 1.00000000000000, 0.000000000000000, 0.000000000000000 ) );
#261 = SURFACE_STYLE_FILL_AREA( #315 );
#262 = ORIENTED_EDGE( '', *, *, #290, .T. );
#263 = ORIENTED_EDGE( '', *, *, #316, .F. );
#264 = ORIENTED_EDGE( '', *, *, #292, .T. );
#265 = ORIENTED_EDGE( '', *, *, #303, .T. );
#266 = CARTESIAN_POINT( '', ( -5.50000000000000, -6.50000000000000, 1.22464679914735E-016 ) );
#267 = DIRECTION( '', ( -1.00000000000000, 0.000000000000000, 0.000000000000000 ) );
#268 = DIRECTION( '', ( 0.000000000000000, 0.000000000000000, 1.00000000000000 ) );
#269 = SURFACE_STYLE_FILL_AREA( #317 );
#270 = ORIENTED_EDGE( '', *, *, #294, .T. );
#271 = ORIENTED_EDGE( '', *, *, #318, .T. );
#272 = ORIENTED_EDGE( '', *, *, #296, .T. );
#273 = ORIENTED_EDGE( '', *, *, #299, .F. );
#274 = CARTESIAN_POINT( '', ( 5.50000000000000, -6.50000000000000, 5.80000000000000 ) );
#275 = DIRECTION( '', ( 1.00000000000000, 0.000000000000000, 2.99090254478760E-016 ) );
#276 = DIRECTION( '', ( 2.99090254478760E-016, 0.000000000000000, -1.00000000000000 ) );
#277 = SURFACE_STYLE_FILL_AREA( #319 );
#278 = ORIENTED_EDGE( '', *, *, #314, .T. );
#279 = ORIENTED_EDGE( '', *, *, #316, .T. );
#280 = ORIENTED_EDGE( '', *, *, #297, .F. );
#281 = ORIENTED_EDGE( '', *, *, #318, .F. );
#282 = ORIENTED_EDGE( '', *, *, #293, .F. );
#283 = CARTESIAN_POINT( '', ( 6.93889390390723E-015, 0.000000000000000, 0.000000000000000 ) );
#284 = DIRECTION( '', ( 0.000000000000000, 0.000000000000000, 1.00000000000000 ) );
#285 = DIRECTION( '', ( 1.00000000000000, 0.000000000000000, 0.000000000000000 ) );
#286 = FILL_AREA_STYLE( '', ( #320 ) );
#287 = EDGE_CURVE( '', #321, #321, #322, .T. );
#288 = EDGE_CURVE( '', #323, #323, #324, .T. );
#289 = FILL_AREA_STYLE( '', ( #325 ) );
#290 = EDGE_CURVE( '', #326, #327, #328, .T. );
#291 = EDGE_CURVE( '', #329, #326, #330, .T. );
#292 = EDGE_CURVE( '', #331, #329, #332, .F. );
#293 = EDGE_CURVE( '', #331, #333, #334, .T. );
#294 = EDGE_CURVE( '', #335, #333, #336, .T. );
#295 = EDGE_CURVE( '', #337, #335, #338, .T. );
#296 = EDGE_CURVE( '', #339, #337, #340, .F. );
#297 = EDGE_CURVE( '', #339, #327, #341, .T. );
#298 = FILL_AREA_STYLE( '', ( #342 ) );
#299 = EDGE_CURVE( '', #335, #337, #343, .T. );
#300 = FILL_AREA_STYLE( '', ( #344 ) );
#301 = EDGE_CURVE( '', #345, #345, #346, .F. );
#302 = FILL_AREA_STYLE( '', ( #347 ) );
#303 = EDGE_CURVE( '', #329, #326, #348, .T. );
#304 = FILL_AREA_STYLE( '', ( #349 ) );
#305 = EDGE_CURVE( '', #350, #350, #351, .T. );
#306 = FILL_AREA_STYLE( '', ( #352 ) );
#307 = EDGE_CURVE( '', #353, #353, #354, .T. );
#308 = FILL_AREA_STYLE( '', ( #355 ) );
#309 = EDGE_CURVE( '', #356, #356, #357, .T. );
#310 = FILL_AREA_STYLE( '', ( #358 ) );
#311 = EDGE_CURVE( '', #359, #359, #360, .T. );
#312 = FILL_AREA_STYLE( '', ( #361 ) );
#313 = FILL_AREA_STYLE( '', ( #362 ) );
#314 = EDGE_CURVE( '', #363, #363, #364, .T. );
#315 = FILL_AREA_STYLE( '', ( #365 ) );
#316 = EDGE_CURVE( '', #331, #327, #366, .T. );
#317 = FILL_AREA_STYLE( '', ( #367 ) );
#318 = EDGE_CURVE( '', #333, #339, #368, .T. );
#319 = FILL_AREA_STYLE( '', ( #369 ) );
#320 = FILL_AREA_STYLE_COLOUR( '', #370 );
#321 = VERTEX_POINT( '', #371 );
#322 = CIRCLE( '', #372, 5.54630228668835 );
#323 = VERTEX_POINT( '', #373 );
#324 = CIRCLE( '', #374, 6.50000000000000 );
#325 = FILL_AREA_STYLE_COLOUR( '', #375 );
#326 = VERTEX_POINT( '', #376 );
#327 = VERTEX_POINT( '', #377 );
#328 = LINE( '', #378, #379 );
#329 = VERTEX_POINT( '', #380 );
#330 = CIRCLE( '', #381, 6.50000000000000 );
#331 = VERTEX_POINT( '', #382 );
#332 = LINE( '', #383, #384 );
#333 = VERTEX_POINT( '', #385 );
#334 = CIRCLE( '', #386, 6.50000000000000 );
#335 = VERTEX_POINT( '', #387 );
#336 = LINE( '', #388, #389 );
#337 = VERTEX_POINT( '', #390 );
#338 = CIRCLE( '', #391, 6.50000000000000 );
#339 = VERTEX_POINT( '', #392 );
#340 = LINE( '', #393, #394 );
#341 = CIRCLE( '', #395, 6.50000000000000 );
#342 = FILL_AREA_STYLE_COLOUR( '', #396 );
#343 = LINE( '', #397, #398 );
#344 = FILL_AREA_STYLE_COLOUR( '', #399 );
#345 = VERTEX_POINT( '', #400 );
#346 = CIRCLE( '', #401, 2.80000000000000 );
#347 = FILL_AREA_STYLE_COLOUR( '', #402 );
#348 = LINE( '', #403, #404 );
#349 = FILL_AREA_STYLE_COLOUR( '', #405 );
#350 = VERTEX_POINT( '', #406 );
#351 = CIRCLE( '', #407, 3.57071421427142 );
#352 = FILL_AREA_STYLE_COLOUR( '', #408 );
#353 = VERTEX_POINT( '', #409 );
#354 = CIRCLE( '', #410, 5.20000000000000 );
#355 = FILL_AREA_STYLE_COLOUR( '', #411 );
#356 = VERTEX_POINT( '', #412 );
#357 = CIRCLE( '', #413, 4.00000000000000 );
#358 = FILL_AREA_STYLE_COLOUR( '', #414 );
#359 = VERTEX_POINT( '', #415 );
#360 = CIRCLE( '', #416, 4.62493243193887 );
#361 = FILL_AREA_STYLE_COLOUR( '', #417 );
#362 = FILL_AREA_STYLE_COLOUR( '', #418 );
#363 = VERTEX_POINT( '', #419 );
#364 = CIRCLE( '', #420, 4.00000000000000 );
#365 = FILL_AREA_STYLE_COLOUR( '', #421 );
#366 = LINE( '', #422, #423 );
#367 = FILL_AREA_STYLE_COLOUR( '', #424 );
#368 = LINE( '', #425, #426 );
#369 = FILL_AREA_STYLE_COLOUR( '', #427 );
#370 = COLOUR_RGB( '', 0.200000002980232, 0.200000002980232, 0.200000002980232 );
#371 = CARTESIAN_POINT( '', ( -5.54630228668835, 0.000000000000000, 9.90000000000000 ) );
#372 = AXIS2_PLACEMENT_3D( '', #428, #429, #430 );
#373 = CARTESIAN_POINT( '', ( -6.50000000000000, 0.000000000000000, 8.94630228668834 ) );
#374 = AXIS2_PLACEMENT_3D( '', #431, #432, #433 );
#375 = COLOUR_RGB( '', 0.200000002980232, 0.200000002980232, 0.200000002980232 );
#376 = CARTESIAN_POINT( '', ( -5.50000000000000, 3.46410161513774, 5.80000000000000 ) );
#377 = CARTESIAN_POINT( '', ( -5.50000000000000, 3.46410161513774, 0.000000000000000 ) );
#378 = CARTESIAN_POINT( '', ( -5.50000000000000, 3.46410161513774, 11.4000000000000 ) );
#379 = VECTOR( '', #434, 1000.00000000000 );
#380 = CARTESIAN_POINT( '', ( -5.50000000000000, -3.46410161513774, 5.80000000000000 ) );
#381 = AXIS2_PLACEMENT_3D( '', #435, #436, #437 );
#382 = CARTESIAN_POINT( '', ( -5.50000000000000, -3.46410161513774, 1.22464679914735E-016 ) );
#383 = CARTESIAN_POINT( '', ( -5.50000000000000, -3.46410161513774, 11.4000000000000 ) );
#384 = VECTOR( '', #438, 1000.00000000000 );
#385 = CARTESIAN_POINT( '', ( 5.50000000000000, -3.46410161513777, 0.000000000000000 ) );
#386 = AXIS2_PLACEMENT_3D( '', #439, #440, #441 );
#387 = CARTESIAN_POINT( '', ( 5.50000000000000, -3.46410161513777, 5.80000000000000 ) );
#388 = CARTESIAN_POINT( '', ( 5.50000000000000, -3.46410161513777, 11.4000000000000 ) );
#389 = VECTOR( '', #442, 1000.00000000000 );
#390 = CARTESIAN_POINT( '', ( 5.50000000000000, 3.46410161513777, 5.80000000000000 ) );
#391 = AXIS2_PLACEMENT_3D( '', #443, #444, #445 );
#392 = CARTESIAN_POINT( '', ( 5.50000000000000, 3.46410161513777, 0.000000000000000 ) );
#393 = CARTESIAN_POINT( '', ( 5.50000000000000, 3.46410161513777, 11.4000000000000 ) );
#394 = VECTOR( '', #446, 1000.00000000000 );
#395 = AXIS2_PLACEMENT_3D( '', #447, #448, #449 );
#396 = COLOUR_RGB( '', 0.200000002980232, 0.200000002980232, 0.200000002980232 );
#397 = CARTESIAN_POINT( '', ( 5.50000000000000, -6.50000000000000, 5.80000000000000 ) );
#398 = VECTOR( '', #450, 1000.00000000000 );
#399 = COLOUR_RGB( '', 0.200000002980232, 0.200000002980232, 0.200000002980232 );
#400 = CARTESIAN_POINT( '', ( 2.80000000000000, 0.000000000000000, -8.00000000000000 ) );
#401 = AXIS2_PLACEMENT_3D( '', #451, #452, #453 );
#402 = COLOUR_RGB( '', 0.200000002980232, 0.200000002980232, 0.200000002980232 );
#403 = CARTESIAN_POINT( '', ( -5.50000000000000, -6.50000000000000, 5.80000000000000 ) );
#404 = VECTOR( '', #454, 1000.00000000000 );
#405 = COLOUR_RGB( '', 1.00000000000000, 1.00000000000000, 1.00000000000000 );
#406 = CARTESIAN_POINT( '', ( 3.57071421427143, 0.000000000000000, 13.0000000000000 ) );
#407 = AXIS2_PLACEMENT_3D( '', #455, #456, #457 );
#408 = COLOUR_RGB( '', 0.200000002980232, 0.200000002980232, 0.200000002980232 );
#409 = CARTESIAN_POINT( '', ( -5.20000000000000, 0.000000000000000, 11.4000000000000 ) );
#410 = AXIS2_PLACEMENT_3D( '', #458, #459, #460 );
#411 = COLOUR_RGB( '', 0.200000002980232, 0.200000002980232, 0.200000002980232 );
#412 = CARTESIAN_POINT( '', ( 4.00000000000000, 0.000000000000000, -6.80000000000000 ) );
#413 = AXIS2_PLACEMENT_3D( '', #461, #462, #463 );
#414 = COLOUR_RGB( '', 1.00000000000000, 1.00000000000000, 1.00000000000000 );
#415 = CARTESIAN_POINT( '', ( 4.62493243193888, 0.000000000000000, 11.4000000000000 ) );
#416 = AXIS2_PLACEMENT_3D( '', #464, #465, #466 );
#417 = COLOUR_RGB( '', 0.200000002980232, 0.200000002980232, 0.200000002980232 );
#418 = COLOUR_RGB( '', 0.200000002980232, 0.200000002980232, 0.200000002980232 );
#419 = CARTESIAN_POINT( '', ( 4.00000000000000, 0.000000000000000, 0.000000000000000 ) );
#420 = AXIS2_PLACEMENT_3D( '', #467, #468, #469 );
#421 = COLOUR_RGB( '', 0.200000002980232, 0.200000002980232, 0.200000002980232 );
#422 = CARTESIAN_POINT( '', ( -5.50000000000000, -6.50000000000000, 1.22464679914735E-016 ) );
#423 = VECTOR( '', #470, 1000.00000000000 );
#424 = COLOUR_RGB( '', 0.200000002980232, 0.200000002980232, 0.200000002980232 );
#425 = CARTESIAN_POINT( '', ( 5.50000000000000, -6.50000000000000, 0.000000000000000 ) );
#426 = VECTOR( '', #471, 1000.00000000000 );
#427 = COLOUR_RGB( '', 0.200000002980232, 0.200000002980232, 0.200000002980232 );
#428 = CARTESIAN_POINT( '', ( 0.000000000000000, 0.000000000000000, 9.90000000000000 ) );
#429 = DIRECTION( '', ( 0.000000000000000, 0.000000000000000, -1.00000000000000 ) );
#430 = DIRECTION( '', ( -1.00000000000000, 0.000000000000000, 0.000000000000000 ) );
#431 = CARTESIAN_POINT( '', ( 0.000000000000000, 0.000000000000000, 8.94630228668834 ) );
#432 = DIRECTION( '', ( 0.000000000000000, 0.000000000000000, -1.00000000000000 ) );
#433 = DIRECTION( '', ( -1.00000000000000, 0.000000000000000, 0.000000000000000 ) );
#434 = DIRECTION( '', ( 0.000000000000000, 0.000000000000000, -1.00000000000000 ) );
#435 = CARTESIAN_POINT( '', ( 6.93889390390723E-015, 0.000000000000000, 5.80000000000000 ) );
#436 = DIRECTION( '', ( 0.000000000000000, 0.000000000000000, -1.00000000000000 ) );
#437 = DIRECTION( '', ( -1.00000000000000, 0.000000000000000, 0.000000000000000 ) );
#438 = DIRECTION( '', ( 0.000000000000000, 0.000000000000000, -1.00000000000000 ) );
#439 = CARTESIAN_POINT( '', ( 6.93889390390723E-015, 0.000000000000000, 0.000000000000000 ) );
#440 = DIRECTION( '', ( 0.000000000000000, 0.000000000000000, 1.00000000000000 ) );
#441 = DIRECTION( '', ( 1.00000000000000, 0.000000000000000, 0.000000000000000 ) );
#442 = DIRECTION( '', ( 0.000000000000000, 0.000000000000000, -1.00000000000000 ) );
#443 = CARTESIAN_POINT( '', ( 6.93889390390723E-015, 0.000000000000000, 5.80000000000000 ) );
#444 = DIRECTION( '', ( 0.000000000000000, 0.000000000000000, -1.00000000000000 ) );
#445 = DIRECTION( '', ( -1.00000000000000, 0.000000000000000, 0.000000000000000 ) );
#446 = DIRECTION( '', ( 0.000000000000000, 0.000000000000000, -1.00000000000000 ) );
#447 = CARTESIAN_POINT( '', ( 6.93889390390723E-015, 0.000000000000000, 0.000000000000000 ) );
#448 = DIRECTION( '', ( 0.000000000000000, 0.000000000000000, 1.00000000000000 ) );
#449 = DIRECTION( '', ( 1.00000000000000, 0.000000000000000, 0.000000000000000 ) );
#450 = DIRECTION( '', ( 0.000000000000000, 1.00000000000000, 0.000000000000000 ) );
#451 = CARTESIAN_POINT( '', ( 0.000000000000000, 0.000000000000000, -8.00000000000000 ) );
#452 = DIRECTION( '', ( 0.000000000000000, 0.000000000000000, 1.00000000000000 ) );
#453 = DIRECTION( '', ( 1.00000000000000, 0.000000000000000, 0.000000000000000 ) );
#454 = DIRECTION( '', ( 0.000000000000000, 1.00000000000000, 0.000000000000000 ) );
#455 = CARTESIAN_POINT( '', ( 4.28006734600370E-016, 0.000000000000000, 13.0000000000000 ) );
#456 = DIRECTION( '', ( -1.24719410340319E-016, 0.000000000000000, 1.00000000000000 ) );
#457 = DIRECTION( '', ( 1.00000000000000, 0.000000000000000, 1.24719410340319E-016 ) );
#458 = CARTESIAN_POINT( '', ( 0.000000000000000, 0.000000000000000, 11.4000000000000 ) );
#459 = DIRECTION( '', ( 0.000000000000000, 0.000000000000000, -1.00000000000000 ) );
#460 = DIRECTION( '', ( -1.00000000000000, 0.000000000000000, 0.000000000000000 ) );
#461 = CARTESIAN_POINT( '', ( 0.000000000000000, 0.000000000000000, -6.80000000000000 ) );
#462 = DIRECTION( '', ( 0.000000000000000, 0.000000000000000, 1.00000000000000 ) );
#463 = DIRECTION( '', ( 1.00000000000000, 0.000000000000000, 0.000000000000000 ) );
#464 = CARTESIAN_POINT( '', ( 5.44967825620572E-015, 0.000000000000000, 11.4000000000000 ) );
#465 = DIRECTION( '', ( 0.000000000000000, 0.000000000000000, 1.00000000000000 ) );
#466 = DIRECTION( '', ( 1.00000000000000, 0.000000000000000, 0.000000000000000 ) );
#467 = CARTESIAN_POINT( '', ( 0.000000000000000, 0.000000000000000, 0.000000000000000 ) );
#468 = DIRECTION( '', ( 0.000000000000000, 0.000000000000000, 1.00000000000000 ) );
#469 = DIRECTION( '', ( 1.00000000000000, 0.000000000000000, 0.000000000000000 ) );
#470 = DIRECTION( '', ( 0.000000000000000, 1.00000000000000, 0.000000000000000 ) );
#471 = DIRECTION( '', ( 0.000000000000000, 1.00000000000000, 0.000000000000000 ) );
ENDSEC;
END-ISO-10303-21;
