ISO-10303-21;
HEADER;
FILE_DESCRIPTION( ( 'Unknown' ), '1' );
FILE_NAME( 'S:/LEAVE 2D&3D CAD/LEAVE 3D-STEP/Metric/PT-3D/PT59-3D/PT59-0818-12.stp', 'Unknown', ( 'Unknown' ), ( 'Unknown' ), 'PSStep 16.0.42', 'Unknown', '  ' );
FILE_SCHEMA( ( 'AUTOMOTIVE_DESIGN { 1 0 10303 214 1 1 1 1 }' ) );
ENDSEC;
DATA;
#1 = MECHANICAL_DESIGN_GEOMETRIC_PRESENTATION_REPRESENTATION( ' ', ( #10, #11, #12, #13, #14, #15, #16, #17, #18, #19, #20, #21, #22, #23, #24 ), #6 );
#2 = PRODUCT_DEFINITION_CONTEXT( '', #25, 'design' );
#3 = APPLICATION_PROTOCOL_DEFINITION( 'international standard', 'automotive_design', 2001, #25 );
#4 = PRODUCT_CATEGORY_RELATIONSHIP( 'NONE', 'NONE', #26, #27 );
#5 = SHAPE_DEFINITION_REPRESENTATION( #28, #29 );
#6 =  ( GEOMETRIC_REPRESENTATION_CONTEXT( 3 )GLOBAL_UNCERTAINTY_ASSIGNED_CONTEXT( ( #32 ) )GLOBAL_UNIT_ASSIGNED_CONTEXT( ( #34, #35, #36 ) )REPRESENTATION_CONTEXT( 'NONE', 'WORKSPACE' ) );
#10 = STYLED_ITEM( '', ( #38 ), #39 );
#11 = STYLED_ITEM( '', ( #40 ), #41 );
#12 = STYLED_ITEM( '', ( #42 ), #43 );
#13 = STYLED_ITEM( '', ( #44 ), #45 );
#14 = STYLED_ITEM( '', ( #46 ), #47 );
#15 = STYLED_ITEM( '', ( #48 ), #49 );
#16 = STYLED_ITEM( '', ( #50 ), #51 );
#17 = STYLED_ITEM( '', ( #52 ), #53 );
#18 = STYLED_ITEM( '', ( #54 ), #55 );
#19 = STYLED_ITEM( '', ( #56 ), #57 );
#20 = STYLED_ITEM( '', ( #58 ), #59 );
#21 = STYLED_ITEM( '', ( #60 ), #61 );
#22 = STYLED_ITEM( '', ( #62 ), #63 );
#23 = STYLED_ITEM( '', ( #64 ), #65 );
#24 = STYLED_ITEM( '', ( #66 ), #67 );
#25 = APPLICATION_CONTEXT( 'core data for automotive mechanical design processes' );
#26 = PRODUCT_CATEGORY( 'part', 'NONE' );
#27 = PRODUCT_RELATED_PRODUCT_CATEGORY( 'detail', ' ', ( #68 ) );
#28 = PRODUCT_DEFINITION_SHAPE( 'NONE', 'NONE', #69 );
#29 = ADVANCED_BREP_SHAPE_REPRESENTATION( '1', ( #70, #71 ), #6 );
#32 = UNCERTAINTY_MEASURE_WITH_UNIT( LENGTH_MEASURE( 0.00100000000000000 ), #34, '', '' );
#34 =  ( CONVERSION_BASED_UNIT( 'MILLIMETRE', #74 )LENGTH_UNIT(  )NAMED_UNIT( #77 ) );
#35 =  ( NAMED_UNIT( #79 )PLANE_ANGLE_UNIT(  )SI_UNIT( $, .RADIAN. ) );
#36 =  ( NAMED_UNIT( #79 )SI_UNIT( $, .STERADIAN. )SOLID_ANGLE_UNIT(  ) );
#38 = PRESENTATION_STYLE_ASSIGNMENT( ( #85 ) );
#39 = ADVANCED_FACE( '', ( #86, #87 ), #88, .F. );
#40 = PRESENTATION_STYLE_ASSIGNMENT( ( #89 ) );
#41 = ADVANCED_FACE( '', ( #90, #91 ), #92, .F. );
#42 = PRESENTATION_STYLE_ASSIGNMENT( ( #93 ) );
#43 = ADVANCED_FACE( '', ( #94, #95 ), #96, .T. );
#44 = PRESENTATION_STYLE_ASSIGNMENT( ( #97 ) );
#45 = ADVANCED_FACE( '', ( #98, #99 ), #100, .T. );
#46 = PRESENTATION_STYLE_ASSIGNMENT( ( #101 ) );
#47 = ADVANCED_FACE( '', ( #102, #103 ), #104, .T. );
#48 = PRESENTATION_STYLE_ASSIGNMENT( ( #105 ) );
#49 = ADVANCED_FACE( '', ( #106, #107 ), #108, .F. );
#50 = PRESENTATION_STYLE_ASSIGNMENT( ( #109 ) );
#51 = ADVANCED_FACE( '', ( #110, #111 ), #112, .T. );
#52 = PRESENTATION_STYLE_ASSIGNMENT( ( #113 ) );
#53 = ADVANCED_FACE( '', ( #114, #115 ), #116, .T. );
#54 = PRESENTATION_STYLE_ASSIGNMENT( ( #117 ) );
#55 = ADVANCED_FACE( '', ( #118, #119 ), #120, .F. );
#56 = PRESENTATION_STYLE_ASSIGNMENT( ( #121 ) );
#57 = ADVANCED_FACE( '', ( #122, #123 ), #124, .T. );
#58 = PRESENTATION_STYLE_ASSIGNMENT( ( #125 ) );
#59 = ADVANCED_FACE( '', ( #126, #127 ), #128, .T. );
#60 = PRESENTATION_STYLE_ASSIGNMENT( ( #129 ) );
#61 = ADVANCED_FACE( '', ( #130, #131 ), #132, .F. );
#62 = PRESENTATION_STYLE_ASSIGNMENT( ( #133 ) );
#63 = ADVANCED_FACE( '', ( #134, #135 ), #136, .T. );
#64 = PRESENTATION_STYLE_ASSIGNMENT( ( #137 ) );
#65 = ADVANCED_FACE( '', ( #138, #139 ), #140, .T. );
#66 = PRESENTATION_STYLE_ASSIGNMENT( ( #141 ) );
#67 = ADVANCED_FACE( '', ( #142, #143 ), #144, .T. );
#68 = PRODUCT( '1', '1', 'PART-1-DESC', ( #145 ) );
#69 = PRODUCT_DEFINITION( 'NONE', 'NONE', #146, #2 );
#70 = MANIFOLD_SOLID_BREP( '1', #147 );
#71 = AXIS2_PLACEMENT_3D( '', #148, #149, #150 );
#74 = LENGTH_MEASURE_WITH_UNIT( LENGTH_MEASURE( 1.00000000000000 ), #151 );
#77 = DIMENSIONAL_EXPONENTS( 1.00000000000000, 0.000000000000000, 0.000000000000000, 0.000000000000000, 0.000000000000000, 0.000000000000000, 0.000000000000000 );
#79 = DIMENSIONAL_EXPONENTS( 0.000000000000000, 0.000000000000000, 0.000000000000000, 0.000000000000000, 0.000000000000000, 0.000000000000000, 0.000000000000000 );
#85 = SURFACE_STYLE_USAGE( .BOTH., #152 );
#86 = FACE_OUTER_BOUND( '', #153, .T. );
#87 = FACE_BOUND( '', #154, .T. );
#88 = CONICAL_SURFACE( '', #155, 7.85355339059327, 0.785398163397450 );
#89 = SURFACE_STYLE_USAGE( .BOTH., #156 );
#90 = FACE_OUTER_BOUND( '', #157, .T. );
#91 = FACE_BOUND( '', #158, .T. );
#92 = PLANE( '', #159 );
#93 = SURFACE_STYLE_USAGE( .BOTH., #160 );
#94 = FACE_BOUND( '', #161, .T. );
#95 = FACE_OUTER_BOUND( '', #162, .T. );
#96 = CONICAL_SURFACE( '', #163, 9.00000000000000, 0.785398163397448 );
#97 = SURFACE_STYLE_USAGE( .BOTH., #164 );
#98 = FACE_OUTER_BOUND( '', #165, .T. );
#99 = FACE_OUTER_BOUND( '', #166, .T. );
#100 = TOROIDAL_SURFACE( '', #167, 6.86787811495963, 0.300000000000000 );
#101 = SURFACE_STYLE_USAGE( .BOTH., #168 );
#102 = FACE_OUTER_BOUND( '', #169, .T. );
#103 = FACE_BOUND( '', #170, .T. );
#104 = PLANE( '', #171 );
#105 = SURFACE_STYLE_USAGE( .BOTH., #172 );
#106 = FACE_OUTER_BOUND( '', #173, .T. );
#107 = FACE_OUTER_BOUND( '', #174, .T. );
#108 = TOROIDAL_SURFACE( '', #175, 7.50000000000000, 0.500000000000000 );
#109 = SURFACE_STYLE_USAGE( .BOTH., #176 );
#110 = FACE_BOUND( '', #177, .T. );
#111 = FACE_OUTER_BOUND( '', #178, .T. );
#112 = CONICAL_SURFACE( '', #179, 7.50000000000000, 0.785398163397449 );
#113 = SURFACE_STYLE_USAGE( .BOTH., #180 );
#114 = FACE_OUTER_BOUND( '', #181, .T. );
#115 = FACE_OUTER_BOUND( '', #182, .T. );
#116 = TOROIDAL_SURFACE( '', #183, 6.00000000000000, 2.00000000000000 );
#117 = SURFACE_STYLE_USAGE( .BOTH., #184 );
#118 = FACE_BOUND( '', #185, .T. );
#119 = FACE_OUTER_BOUND( '', #186, .T. );
#120 = CONICAL_SURFACE( '', #187, 4.50000000000000, 0.785398163397448 );
#121 = SURFACE_STYLE_USAGE( .BOTH., #188 );
#122 = FACE_BOUND( '', #189, .T. );
#123 = FACE_OUTER_BOUND( '', #190, .T. );
#124 = CONICAL_SURFACE( '', #191, 7.09807621135332, 0.261799387799149 );
#125 = SURFACE_STYLE_USAGE( .BOTH., #192 );
#126 = FACE_OUTER_BOUND( '', #193, .T. );
#127 = FACE_OUTER_BOUND( '', #194, .T. );
#128 = CYLINDRICAL_SURFACE( '', #195, 9.00000000000000 );
#129 = SURFACE_STYLE_USAGE( .BOTH., #196 );
#130 = FACE_OUTER_BOUND( '', #197, .T. );
#131 = FACE_OUTER_BOUND( '', #198, .T. );
#132 = CYLINDRICAL_SURFACE( '', #199, 4.00000000000000 );
#133 = SURFACE_STYLE_USAGE( .BOTH., #200 );
#134 = FACE_OUTER_BOUND( '', #201, .T. );
#135 = FACE_BOUND( '', #202, .T. );
#136 = PLANE( '', #203 );
#137 = SURFACE_STYLE_USAGE( .BOTH., #204 );
#138 = FACE_OUTER_BOUND( '', #205, .T. );
#139 = FACE_OUTER_BOUND( '', #206, .T. );
#140 = CYLINDRICAL_SURFACE( '', #207, 7.50000000000000 );
#141 = SURFACE_STYLE_USAGE( .BOTH., #208 );
#142 = FACE_OUTER_BOUND( '', #209, .T. );
#143 = FACE_BOUND( '', #210, .T. );
#144 = CONICAL_SURFACE( '', #211, 8.80000000000000, 0.785398163397448 );
#145 = PRODUCT_CONTEXT( '', #25, 'mechanical' );
#146 = PRODUCT_DEFINITION_FORMATION_WITH_SPECIFIED_SOURCE( ' ', 'NONE', #68, .NOT_KNOWN. );
#147 = CLOSED_SHELL( '', ( #65, #57, #51, #63, #53, #55, #67, #43, #45, #59, #47, #41, #61, #49, #39 ) );
#148 = CARTESIAN_POINT( '', ( 0.000000000000000, 0.000000000000000, 0.000000000000000 ) );
#149 = DIRECTION( '', ( 0.000000000000000, 0.000000000000000, 1.00000000000000 ) );
#150 = DIRECTION( '', ( 1.00000000000000, 0.000000000000000, 0.000000000000000 ) );
#151 =  ( LENGTH_UNIT(  )NAMED_UNIT( #77 )SI_UNIT( .MILLI., .METRE. ) );
#152 = SURFACE_SIDE_STYLE( '', ( #213 ) );
#153 = EDGE_LOOP( '', ( #214 ) );
#154 = EDGE_LOOP( '', ( #215 ) );
#155 = AXIS2_PLACEMENT_3D( '', #216, #217, #218 );
#156 = SURFACE_SIDE_STYLE( '', ( #219 ) );
#157 = EDGE_LOOP( '', ( #220 ) );
#158 = EDGE_LOOP( '', ( #221 ) );
#159 = AXIS2_PLACEMENT_3D( '', #222, #223, #224 );
#160 = SURFACE_SIDE_STYLE( '', ( #225 ) );
#161 = EDGE_LOOP( '', ( #226 ) );
#162 = EDGE_LOOP( '', ( #227 ) );
#163 = AXIS2_PLACEMENT_3D( '', #228, #229, #230 );
#164 = SURFACE_SIDE_STYLE( '', ( #231 ) );
#165 = EDGE_LOOP( '', ( #232 ) );
#166 = EDGE_LOOP( '', ( #233 ) );
#167 = AXIS2_PLACEMENT_3D( '', #234, #235, #236 );
#168 = SURFACE_SIDE_STYLE( '', ( #237 ) );
#169 = EDGE_LOOP( '', ( #238 ) );
#170 = EDGE_LOOP( '', ( #239 ) );
#171 = AXIS2_PLACEMENT_3D( '', #240, #241, #242 );
#172 = SURFACE_SIDE_STYLE( '', ( #243 ) );
#173 = EDGE_LOOP( '', ( #244 ) );
#174 = EDGE_LOOP( '', ( #245 ) );
#175 = AXIS2_PLACEMENT_3D( '', #246, #247, #248 );
#176 = SURFACE_SIDE_STYLE( '', ( #249 ) );
#177 = EDGE_LOOP( '', ( #250 ) );
#178 = EDGE_LOOP( '', ( #251 ) );
#179 = AXIS2_PLACEMENT_3D( '', #252, #253, #254 );
#180 = SURFACE_SIDE_STYLE( '', ( #255 ) );
#181 = EDGE_LOOP( '', ( #256 ) );
#182 = EDGE_LOOP( '', ( #257 ) );
#183 = AXIS2_PLACEMENT_3D( '', #258, #259, #260 );
#184 = SURFACE_SIDE_STYLE( '', ( #261 ) );
#185 = EDGE_LOOP( '', ( #262 ) );
#186 = EDGE_LOOP( '', ( #263 ) );
#187 = AXIS2_PLACEMENT_3D( '', #264, #265, #266 );
#188 = SURFACE_SIDE_STYLE( '', ( #267 ) );
#189 = EDGE_LOOP( '', ( #268 ) );
#190 = EDGE_LOOP( '', ( #269 ) );
#191 = AXIS2_PLACEMENT_3D( '', #270, #271, #272 );
#192 = SURFACE_SIDE_STYLE( '', ( #273 ) );
#193 = EDGE_LOOP( '', ( #274 ) );
#194 = EDGE_LOOP( '', ( #275 ) );
#195 = AXIS2_PLACEMENT_3D( '', #276, #277, #278 );
#196 = SURFACE_SIDE_STYLE( '', ( #279 ) );
#197 = EDGE_LOOP( '', ( #280 ) );
#198 = EDGE_LOOP( '', ( #281 ) );
#199 = AXIS2_PLACEMENT_3D( '', #282, #283, #284 );
#200 = SURFACE_SIDE_STYLE( '', ( #285 ) );
#201 = EDGE_LOOP( '', ( #286 ) );
#202 = EDGE_LOOP( '', ( #287 ) );
#203 = AXIS2_PLACEMENT_3D( '', #288, #289, #290 );
#204 = SURFACE_SIDE_STYLE( '', ( #291 ) );
#205 = EDGE_LOOP( '', ( #292 ) );
#206 = EDGE_LOOP( '', ( #293 ) );
#207 = AXIS2_PLACEMENT_3D( '', #294, #295, #296 );
#208 = SURFACE_SIDE_STYLE( '', ( #297 ) );
#209 = EDGE_LOOP( '', ( #298 ) );
#210 = EDGE_LOOP( '', ( #299 ) );
#211 = AXIS2_PLACEMENT_3D( '', #300, #301, #302 );
#213 = SURFACE_STYLE_FILL_AREA( #303 );
#214 = ORIENTED_EDGE( '', *, *, #304, .F. );
#215 = ORIENTED_EDGE( '', *, *, #305, .T. );
#216 = CARTESIAN_POINT( '', ( 0.000000000000000, 0.000000000000000, 9.35355339059327 ) );
#217 = DIRECTION( '', ( -0.000000000000000, 0.000000000000000, -1.00000000000000 ) );
#218 = DIRECTION( '', ( -1.00000000000000, 0.000000000000000, 0.000000000000000 ) );
#219 = SURFACE_STYLE_FILL_AREA( #306 );
#220 = ORIENTED_EDGE( '', *, *, #307, .T. );
#221 = ORIENTED_EDGE( '', *, *, #308, .T. );
#222 = CARTESIAN_POINT( '', ( 0.000000000000000, 0.000000000000000, 12.0000000000000 ) );
#223 = DIRECTION( '', ( 0.000000000000000, 0.000000000000000, -1.00000000000000 ) );
#224 = DIRECTION( '', ( -1.00000000000000, 0.000000000000000, 0.000000000000000 ) );
#225 = SURFACE_STYLE_FILL_AREA( #309 );
#226 = ORIENTED_EDGE( '', *, *, #307, .F. );
#227 = ORIENTED_EDGE( '', *, *, #310, .F. );
#228 = CARTESIAN_POINT( '', ( 0.000000000000000, 0.000000000000000, 11.8000000000000 ) );
#229 = DIRECTION( '', ( -0.000000000000000, 0.000000000000000, -1.00000000000000 ) );
#230 = DIRECTION( '', ( -1.00000000000000, 0.000000000000000, 0.000000000000000 ) );
#231 = SURFACE_STYLE_FILL_AREA( #311 );
#232 = ORIENTED_EDGE( '', *, *, #312, .F. );
#233 = ORIENTED_EDGE( '', *, *, #313, .F. );
#234 = CARTESIAN_POINT( '', ( 0.000000000000000, 0.000000000000000, 0.300000000000000 ) );
#235 = DIRECTION( '', ( 0.000000000000000, 0.000000000000000, -1.00000000000000 ) );
#236 = DIRECTION( '', ( -1.00000000000000, 0.000000000000000, 0.000000000000000 ) );
#237 = SURFACE_STYLE_FILL_AREA( #314 );
#238 = ORIENTED_EDGE( '', *, *, #313, .T. );
#239 = ORIENTED_EDGE( '', *, *, #315, .T. );
#240 = CARTESIAN_POINT( '', ( 0.000000000000000, 0.000000000000000, 0.000000000000000 ) );
#241 = DIRECTION( '', ( 0.000000000000000, 0.000000000000000, -1.00000000000000 ) );
#242 = DIRECTION( '', ( -1.00000000000000, 0.000000000000000, 0.000000000000000 ) );
#243 = SURFACE_STYLE_FILL_AREA( #316 );
#244 = ORIENTED_EDGE( '', *, *, #305, .F. );
#245 = ORIENTED_EDGE( '', *, *, #317, .T. );
#246 = CARTESIAN_POINT( '', ( 0.000000000000000, 0.000000000000000, 9.00000000000000 ) );
#247 = DIRECTION( '', ( 0.000000000000000, 0.000000000000000, 1.00000000000000 ) );
#248 = DIRECTION( '', ( 1.00000000000000, 0.000000000000000, 0.000000000000000 ) );
#249 = SURFACE_STYLE_FILL_AREA( #318 );
#250 = ORIENTED_EDGE( '', *, *, #317, .F. );
#251 = ORIENTED_EDGE( '', *, *, #319, .T. );
#252 = CARTESIAN_POINT( '', ( 0.000000000000000, 0.000000000000000, 8.29289321881345 ) );
#253 = DIRECTION( '', ( -0.000000000000000, 0.000000000000000, -1.00000000000000 ) );
#254 = DIRECTION( '', ( -1.00000000000000, 0.000000000000000, 0.000000000000000 ) );
#255 = SURFACE_STYLE_FILL_AREA( #320 );
#256 = ORIENTED_EDGE( '', *, *, #308, .F. );
#257 = ORIENTED_EDGE( '', *, *, #321, .F. );
#258 = CARTESIAN_POINT( '', ( 0.000000000000000, 0.000000000000000, 10.0000000000000 ) );
#259 = DIRECTION( '', ( 0.000000000000000, 0.000000000000000, -1.00000000000000 ) );
#260 = DIRECTION( '', ( -1.00000000000000, 0.000000000000000, 0.000000000000000 ) );
#261 = SURFACE_STYLE_FILL_AREA( #322 );
#262 = ORIENTED_EDGE( '', *, *, #323, .F. );
#263 = ORIENTED_EDGE( '', *, *, #315, .F. );
#264 = CARTESIAN_POINT( '', ( 0.000000000000000, 0.000000000000000, 0.000000000000000 ) );
#265 = DIRECTION( '', ( -0.000000000000000, 0.000000000000000, -1.00000000000000 ) );
#266 = DIRECTION( '', ( -1.00000000000000, 0.000000000000000, 0.000000000000000 ) );
#267 = SURFACE_STYLE_FILL_AREA( #324 );
#268 = ORIENTED_EDGE( '', *, *, #312, .T. );
#269 = ORIENTED_EDGE( '', *, *, #325, .F. );
#270 = CARTESIAN_POINT( '', ( 0.000000000000000, 0.000000000000000, 0.000000000000000 ) );
#271 = DIRECTION( '', ( -0.000000000000000, -0.000000000000000, 1.00000000000000 ) );
#272 = DIRECTION( '', ( 1.00000000000000, 0.000000000000000, 0.000000000000000 ) );
#273 = SURFACE_STYLE_FILL_AREA( #326 );
#274 = ORIENTED_EDGE( '', *, *, #327, .T. );
#275 = ORIENTED_EDGE( '', *, *, #310, .T. );
#276 = CARTESIAN_POINT( '', ( 0.000000000000000, 0.000000000000000, 9.00000000000000 ) );
#277 = DIRECTION( '', ( -0.000000000000000, -0.000000000000000, -1.00000000000000 ) );
#278 = DIRECTION( '', ( 1.00000000000000, 0.000000000000000, 0.000000000000000 ) );
#279 = SURFACE_STYLE_FILL_AREA( #328 );
#280 = ORIENTED_EDGE( '', *, *, #323, .T. );
#281 = ORIENTED_EDGE( '', *, *, #321, .T. );
#282 = CARTESIAN_POINT( '', ( 0.000000000000000, 0.000000000000000, 12.0000000000000 ) );
#283 = DIRECTION( '', ( -0.000000000000000, -0.000000000000000, 1.00000000000000 ) );
#284 = DIRECTION( '', ( -1.00000000000000, 0.000000000000000, 0.000000000000000 ) );
#285 = SURFACE_STYLE_FILL_AREA( #329 );
#286 = ORIENTED_EDGE( '', *, *, #330, .T. );
#287 = ORIENTED_EDGE( '', *, *, #304, .T. );
#288 = CARTESIAN_POINT( '', ( 0.000000000000000, 0.000000000000000, 9.00000000000000 ) );
#289 = DIRECTION( '', ( 0.000000000000000, 0.000000000000000, -1.00000000000000 ) );
#290 = DIRECTION( '', ( -1.00000000000000, 0.000000000000000, 0.000000000000000 ) );
#291 = SURFACE_STYLE_FILL_AREA( #331 );
#292 = ORIENTED_EDGE( '', *, *, #319, .F. );
#293 = ORIENTED_EDGE( '', *, *, #325, .T. );
#294 = CARTESIAN_POINT( '', ( 0.000000000000000, 0.000000000000000, 12.0000000000000 ) );
#295 = DIRECTION( '', ( -0.000000000000000, -0.000000000000000, 1.00000000000000 ) );
#296 = DIRECTION( '', ( -1.00000000000000, 0.000000000000000, 0.000000000000000 ) );
#297 = SURFACE_STYLE_FILL_AREA( #332 );
#298 = ORIENTED_EDGE( '', *, *, #327, .F. );
#299 = ORIENTED_EDGE( '', *, *, #330, .F. );
#300 = CARTESIAN_POINT( '', ( 0.000000000000000, 0.000000000000000, 9.00000000000000 ) );
#301 = DIRECTION( '', ( -0.000000000000000, -0.000000000000000, 1.00000000000000 ) );
#302 = DIRECTION( '', ( 1.00000000000000, 0.000000000000000, 0.000000000000000 ) );
#303 = FILL_AREA_STYLE( '', ( #333 ) );
#304 = EDGE_CURVE( '', #334, #334, #335, .T. );
#305 = EDGE_CURVE( '', #336, #336, #337, .T. );
#306 = FILL_AREA_STYLE( '', ( #338 ) );
#307 = EDGE_CURVE( '', #339, #339, #340, .F. );
#308 = EDGE_CURVE( '', #341, #341, #342, .T. );
#309 = FILL_AREA_STYLE( '', ( #343 ) );
#310 = EDGE_CURVE( '', #344, #344, #345, .T. );
#311 = FILL_AREA_STYLE( '', ( #346 ) );
#312 = EDGE_CURVE( '', #347, #347, #348, .F. );
#313 = EDGE_CURVE( '', #349, #349, #350, .T. );
#314 = FILL_AREA_STYLE( '', ( #351 ) );
#315 = EDGE_CURVE( '', #352, #352, #353, .F. );
#316 = FILL_AREA_STYLE( '', ( #354 ) );
#317 = EDGE_CURVE( '', #355, #355, #356, .T. );
#318 = FILL_AREA_STYLE( '', ( #357 ) );
#319 = EDGE_CURVE( '', #358, #358, #359, .T. );
#320 = FILL_AREA_STYLE( '', ( #360 ) );
#321 = EDGE_CURVE( '', #361, #361, #362, .F. );
#322 = FILL_AREA_STYLE( '', ( #363 ) );
#323 = EDGE_CURVE( '', #364, #364, #365, .T. );
#324 = FILL_AREA_STYLE( '', ( #366 ) );
#325 = EDGE_CURVE( '', #367, #367, #368, .F. );
#326 = FILL_AREA_STYLE( '', ( #369 ) );
#327 = EDGE_CURVE( '', #370, #370, #371, .F. );
#328 = FILL_AREA_STYLE( '', ( #372 ) );
#329 = FILL_AREA_STYLE( '', ( #373 ) );
#330 = EDGE_CURVE( '', #374, #374, #375, .T. );
#331 = FILL_AREA_STYLE( '', ( #376 ) );
#332 = FILL_AREA_STYLE( '', ( #377 ) );
#333 = FILL_AREA_STYLE_COLOUR( '', #378 );
#334 = VERTEX_POINT( '', #379 );
#335 = CIRCLE( '', #380, 8.20710678118655 );
#336 = VERTEX_POINT( '', #381 );
#337 = CIRCLE( '', #382, 7.85355339059327 );
#338 = FILL_AREA_STYLE_COLOUR( '', #383 );
#339 = VERTEX_POINT( '', #384 );
#340 = CIRCLE( '', #385, 8.80000000000000 );
#341 = VERTEX_POINT( '', #386 );
#342 = CIRCLE( '', #387, 6.00000000000000 );
#343 = FILL_AREA_STYLE_COLOUR( '', #388 );
#344 = VERTEX_POINT( '', #389 );
#345 = CIRCLE( '', #390, 9.00000000000000 );
#346 = FILL_AREA_STYLE_COLOUR( '', #391 );
#347 = VERTEX_POINT( '', #392 );
#348 = CIRCLE( '', #393, 7.15765586284635 );
#349 = VERTEX_POINT( '', #394 );
#350 = CIRCLE( '', #395, 6.86787811495963 );
#351 = FILL_AREA_STYLE_COLOUR( '', #396 );
#352 = VERTEX_POINT( '', #397 );
#353 = CIRCLE( '', #398, 4.50000000000000 );
#354 = FILL_AREA_STYLE_COLOUR( '', #399 );
#355 = VERTEX_POINT( '', #400 );
#356 = CIRCLE( '', #401, 7.14644660940673 );
#357 = FILL_AREA_STYLE_COLOUR( '', #402 );
#358 = VERTEX_POINT( '', #403 );
#359 = CIRCLE( '', #404, 7.50000000000000 );
#360 = FILL_AREA_STYLE_COLOUR( '', #405 );
#361 = VERTEX_POINT( '', #406 );
#362 = CIRCLE( '', #407, 4.00000000000000 );
#363 = FILL_AREA_STYLE_COLOUR( '', #408 );
#364 = VERTEX_POINT( '', #409 );
#365 = CIRCLE( '', #410, 4.00000000000000 );
#366 = FILL_AREA_STYLE_COLOUR( '', #411 );
#367 = VERTEX_POINT( '', #412 );
#368 = CIRCLE( '', #413, 7.50000000000000 );
#369 = FILL_AREA_STYLE_COLOUR( '', #414 );
#370 = VERTEX_POINT( '', #415 );
#371 = CIRCLE( '', #416, 9.00000000000000 );
#372 = FILL_AREA_STYLE_COLOUR( '', #417 );
#373 = FILL_AREA_STYLE_COLOUR( '', #418 );
#374 = VERTEX_POINT( '', #419 );
#375 = CIRCLE( '', #420, 8.80000000000000 );
#376 = FILL_AREA_STYLE_COLOUR( '', #421 );
#377 = FILL_AREA_STYLE_COLOUR( '', #422 );
#378 = COLOUR_RGB( '', 0.752941191196442, 0.752941191196442, 0.752941191196442 );
#379 = CARTESIAN_POINT( '', ( 8.20710678118655, 0.000000000000000, 9.00000000000000 ) );
#380 = AXIS2_PLACEMENT_3D( '', #423, #424, #425 );
#381 = CARTESIAN_POINT( '', ( 7.85355339059327, 0.000000000000000, 9.35355339059327 ) );
#382 = AXIS2_PLACEMENT_3D( '', #426, #427, #428 );
#383 = COLOUR_RGB( '', 0.752941191196442, 0.752941191196442, 0.752941191196442 );
#384 = CARTESIAN_POINT( '', ( -8.80000000000000, 0.000000000000000, 12.0000000000000 ) );
#385 = AXIS2_PLACEMENT_3D( '', #429, #430, #431 );
#386 = CARTESIAN_POINT( '', ( -6.00000000000000, 0.000000000000000, 12.0000000000000 ) );
#387 = AXIS2_PLACEMENT_3D( '', #432, #433, #434 );
#388 = COLOUR_RGB( '', 0.752941191196442, 0.752941191196442, 0.752941191196442 );
#389 = CARTESIAN_POINT( '', ( -9.00000000000000, 0.000000000000000, 11.8000000000000 ) );
#390 = AXIS2_PLACEMENT_3D( '', #435, #436, #437 );
#391 = COLOUR_RGB( '', 0.752941191196442, 0.752941191196442, 0.752941191196442 );
#392 = CARTESIAN_POINT( '', ( -7.15765586284635, 0.000000000000000, 0.222354286469245 ) );
#393 = AXIS2_PLACEMENT_3D( '', #438, #439, #440 );
#394 = CARTESIAN_POINT( '', ( -6.86787811495963, 0.000000000000000, 0.000000000000000 ) );
#395 = AXIS2_PLACEMENT_3D( '', #441, #442, #443 );
#396 = COLOUR_RGB( '', 0.752941191196442, 0.752941191196442, 0.752941191196442 );
#397 = CARTESIAN_POINT( '', ( -4.50000000000000, 0.000000000000000, 0.000000000000000 ) );
#398 = AXIS2_PLACEMENT_3D( '', #444, #445, #446 );
#399 = COLOUR_RGB( '', 0.752941191196442, 0.752941191196442, 0.752941191196442 );
#400 = CARTESIAN_POINT( '', ( 7.14644660940673, 0.000000000000000, 8.64644660940672 ) );
#401 = AXIS2_PLACEMENT_3D( '', #447, #448, #449 );
#402 = COLOUR_RGB( '', 0.752941191196442, 0.752941191196442, 0.752941191196442 );
#403 = CARTESIAN_POINT( '', ( 7.50000000000000, 0.000000000000000, 8.29289321881345 ) );
#404 = AXIS2_PLACEMENT_3D( '', #450, #451, #452 );
#405 = COLOUR_RGB( '', 0.752941191196442, 0.752941191196442, 0.752941191196442 );
#406 = CARTESIAN_POINT( '', ( -4.00000000000000, 0.000000000000000, 10.0000000000000 ) );
#407 = AXIS2_PLACEMENT_3D( '', #453, #454, #455 );
#408 = COLOUR_RGB( '', 0.752941191196442, 0.752941191196442, 0.752941191196442 );
#409 = CARTESIAN_POINT( '', ( -4.00000000000000, 0.000000000000000, 0.500000000000000 ) );
#410 = AXIS2_PLACEMENT_3D( '', #456, #457, #458 );
#411 = COLOUR_RGB( '', 0.200000002980232, 0.200000002980232, 0.200000002980232 );
#412 = CARTESIAN_POINT( '', ( -7.50000000000000, 0.000000000000000, 1.50000000000000 ) );
#413 = AXIS2_PLACEMENT_3D( '', #459, #460, #461 );
#414 = COLOUR_RGB( '', 0.752941191196442, 0.752941191196442, 0.752941191196442 );
#415 = CARTESIAN_POINT( '', ( -9.00000000000000, 0.000000000000000, 9.20000000000000 ) );
#416 = AXIS2_PLACEMENT_3D( '', #462, #463, #464 );
#417 = COLOUR_RGB( '', 0.752941191196442, 0.752941191196442, 0.752941191196442 );
#418 = COLOUR_RGB( '', 0.752941191196442, 0.752941191196442, 0.752941191196442 );
#419 = CARTESIAN_POINT( '', ( -8.80000000000000, 0.000000000000000, 9.00000000000000 ) );
#420 = AXIS2_PLACEMENT_3D( '', #465, #466, #467 );
#421 = COLOUR_RGB( '', 1.00000000000000, 1.00000000000000, 1.00000000000000 );
#422 = COLOUR_RGB( '', 0.752941191196442, 0.752941191196442, 0.752941191196442 );
#423 = CARTESIAN_POINT( '', ( 0.000000000000000, 0.000000000000000, 9.00000000000000 ) );
#424 = DIRECTION( '', ( 0.000000000000000, 0.000000000000000, 1.00000000000000 ) );
#425 = DIRECTION( '', ( 1.00000000000000, 0.000000000000000, 0.000000000000000 ) );
#426 = CARTESIAN_POINT( '', ( 0.000000000000000, 0.000000000000000, 9.35355339059327 ) );
#427 = DIRECTION( '', ( 0.000000000000000, 0.000000000000000, 1.00000000000000 ) );
#428 = DIRECTION( '', ( 1.00000000000000, 0.000000000000000, 0.000000000000000 ) );
#429 = CARTESIAN_POINT( '', ( 0.000000000000000, 0.000000000000000, 12.0000000000000 ) );
#430 = DIRECTION( '', ( 0.000000000000000, 0.000000000000000, -1.00000000000000 ) );
#431 = DIRECTION( '', ( -1.00000000000000, 0.000000000000000, 0.000000000000000 ) );
#432 = CARTESIAN_POINT( '', ( 0.000000000000000, 0.000000000000000, 12.0000000000000 ) );
#433 = DIRECTION( '', ( 0.000000000000000, 0.000000000000000, -1.00000000000000 ) );
#434 = DIRECTION( '', ( -1.00000000000000, 0.000000000000000, 0.000000000000000 ) );
#435 = CARTESIAN_POINT( '', ( 0.000000000000000, 0.000000000000000, 11.8000000000000 ) );
#436 = DIRECTION( '', ( 0.000000000000000, 0.000000000000000, -1.00000000000000 ) );
#437 = DIRECTION( '', ( -1.00000000000000, 0.000000000000000, 0.000000000000000 ) );
#438 = CARTESIAN_POINT( '', ( 0.000000000000000, 0.000000000000000, 0.222354286469245 ) );
#439 = DIRECTION( '', ( 0.000000000000000, 0.000000000000000, -1.00000000000000 ) );
#440 = DIRECTION( '', ( -1.00000000000000, 0.000000000000000, 0.000000000000000 ) );
#441 = CARTESIAN_POINT( '', ( 0.000000000000000, 0.000000000000000, 0.000000000000000 ) );
#442 = DIRECTION( '', ( 0.000000000000000, 0.000000000000000, -1.00000000000000 ) );
#443 = DIRECTION( '', ( -1.00000000000000, 0.000000000000000, 0.000000000000000 ) );
#444 = CARTESIAN_POINT( '', ( 0.000000000000000, 0.000000000000000, 0.000000000000000 ) );
#445 = DIRECTION( '', ( 0.000000000000000, 0.000000000000000, -1.00000000000000 ) );
#446 = DIRECTION( '', ( -1.00000000000000, 0.000000000000000, 0.000000000000000 ) );
#447 = CARTESIAN_POINT( '', ( 0.000000000000000, 0.000000000000000, 8.64644660940672 ) );
#448 = DIRECTION( '', ( 0.000000000000000, 0.000000000000000, 1.00000000000000 ) );
#449 = DIRECTION( '', ( 1.00000000000000, 0.000000000000000, 0.000000000000000 ) );
#450 = CARTESIAN_POINT( '', ( 0.000000000000000, 0.000000000000000, 8.29289321881345 ) );
#451 = DIRECTION( '', ( 0.000000000000000, 0.000000000000000, 1.00000000000000 ) );
#452 = DIRECTION( '', ( 1.00000000000000, 0.000000000000000, 0.000000000000000 ) );
#453 = CARTESIAN_POINT( '', ( 0.000000000000000, 0.000000000000000, 10.0000000000000 ) );
#454 = DIRECTION( '', ( 0.000000000000000, 0.000000000000000, -1.00000000000000 ) );
#455 = DIRECTION( '', ( -1.00000000000000, 0.000000000000000, 0.000000000000000 ) );
#456 = CARTESIAN_POINT( '', ( 0.000000000000000, 0.000000000000000, 0.500000000000000 ) );
#457 = DIRECTION( '', ( 0.000000000000000, 0.000000000000000, -1.00000000000000 ) );
#458 = DIRECTION( '', ( -1.00000000000000, 0.000000000000000, 0.000000000000000 ) );
#459 = CARTESIAN_POINT( '', ( 0.000000000000000, 0.000000000000000, 1.50000000000000 ) );
#460 = DIRECTION( '', ( 0.000000000000000, 0.000000000000000, -1.00000000000000 ) );
#461 = DIRECTION( '', ( -1.00000000000000, 0.000000000000000, 0.000000000000000 ) );
#462 = CARTESIAN_POINT( '', ( 0.000000000000000, 0.000000000000000, 9.20000000000000 ) );
#463 = DIRECTION( '', ( 0.000000000000000, 0.000000000000000, -1.00000000000000 ) );
#464 = DIRECTION( '', ( -1.00000000000000, 0.000000000000000, 0.000000000000000 ) );
#465 = CARTESIAN_POINT( '', ( 0.000000000000000, 0.000000000000000, 9.00000000000000 ) );
#466 = DIRECTION( '', ( 0.000000000000000, 0.000000000000000, -1.00000000000000 ) );
#467 = DIRECTION( '', ( -1.00000000000000, 0.000000000000000, 0.000000000000000 ) );
ENDSEC;
END-ISO-10303-21;
