ISO-10303-21;
HEADER;
FILE_DESCRIPTION( ( 'Unknown' ), '1' );
FILE_NAME( 'f:/¼È¦s/PT-3D/PT03-3D/PT03-1025.stp', 'Unknown', ( 'Unknown' ), ( 'Unknown' ), 'XStep 1.0', 'Unknown', '  ' );
FILE_SCHEMA( ( 'CONFIG_CONTROL_DESIGN' ) );
ENDSEC;
DATA;
#1 = DESIGN_CONTEXT( '', #27, 'design' );
#2 = APPLICATION_PROTOCOL_DEFINITION( 'INTERNATIONAL STANDARD', 'config_control_design', 1994, #27 );
#3 = PRODUCT_CATEGORY_RELATIONSHIP( 'NONE', 'NONE', #28, #29 );
#4 = DATE_AND_TIME( #30, #31 );
#5 = DATE_TIME_ROLE( 'creation_date' );
#6 = DATE_TIME_ROLE( 'classification_date' );
#7 = PERSON_AND_ORGANIZATION_ROLE( 'creator' );
#8 = PERSON_AND_ORGANIZATION_ROLE( 'design_supplier' );
#9 = PERSON_AND_ORGANIZATION_ROLE( 'classification_officer' );
#10 = PERSON_AND_ORGANIZATION_ROLE( 'design_owner' );
#11 = APPROVAL_PERSON_ORGANIZATION( #32, #33, #34 );
#12 = APPROVAL_DATE_TIME( #4, #33 );
#13 = CC_DESIGN_APPROVAL( #33, ( #35, #36, #37 ) );
#14 = CC_DESIGN_DATE_AND_TIME_ASSIGNMENT( #4, #5, ( #37 ) );
#15 = CC_DESIGN_DATE_AND_TIME_ASSIGNMENT( #4, #6, ( #35 ) );
#16 = CC_DESIGN_PERSON_AND_ORGANIZATION_ASSIGNMENT( #32, #10, ( #38 ) );
#17 = CC_DESIGN_PERSON_AND_ORGANIZATION_ASSIGNMENT( #32, #7, ( #37 ) );
#18 = CC_DESIGN_PERSON_AND_ORGANIZATION_ASSIGNMENT( #32, #7, ( #36 ) );
#19 = CC_DESIGN_PERSON_AND_ORGANIZATION_ASSIGNMENT( #32, #8, ( #36 ) );
#20 = CC_DESIGN_SECURITY_CLASSIFICATION( #35, ( #36 ) );
#21 = CC_DESIGN_PERSON_AND_ORGANIZATION_ASSIGNMENT( #32, #9, ( #35 ) );
#22 = SHAPE_DEFINITION_REPRESENTATION( #39, #40 );
#23 =  ( GEOMETRIC_REPRESENTATION_CONTEXT( 3 )GLOBAL_UNCERTAINTY_ASSIGNED_CONTEXT( ( #43 ) )GLOBAL_UNIT_ASSIGNED_CONTEXT( ( #45, #46, #47 ) )REPRESENTATION_CONTEXT( 'NONE', 'WORKSPACE' ) );
#27 = APPLICATION_CONTEXT( 'CONFIGURATION CONTROLLED 3D DESIGNS OF MECHANICAL PARTS AND ASSEMBLIES' );
#28 = PRODUCT_CATEGORY( 'part', 'NONE' );
#29 = PRODUCT_RELATED_PRODUCT_CATEGORY( 'detail', ' ', ( #38 ) );
#30 = CALENDAR_DATE( 2009, 9, 10 );
#31 = LOCAL_TIME( 10, 31, 43.0000000000000, #49 );
#32 = PERSON_AND_ORGANIZATION( #50, #51 );
#33 = APPROVAL( #52, 'SOLID MODEL' );
#34 = APPROVAL_ROLE( 'APPROVED' );
#35 = SECURITY_CLASSIFICATION( '', '', #53 );
#36 = PRODUCT_DEFINITION_FORMATION_WITH_SPECIFIED_SOURCE( ' ', 'NONE', #38, .NOT_KNOWN. );
#37 = PRODUCT_DEFINITION( 'NONE', 'NONE', #36, #1 );
#38 = PRODUCT( '1', '1', 'PART-1-DESC', ( #54 ) );
#39 = PRODUCT_DEFINITION_SHAPE( 'NONE', 'NONE', #37 );
#40 = ADVANCED_BREP_SHAPE_REPRESENTATION( '1', ( #55, #56 ), #23 );
#43 = UNCERTAINTY_MEASURE_WITH_UNIT( LENGTH_MEASURE( 0.00100000000000000 ), #45, '', '' );
#45 =  ( CONVERSION_BASED_UNIT( 'MILLIMETRE', #59 )LENGTH_UNIT(  )NAMED_UNIT( #62 ) );
#46 =  ( NAMED_UNIT( #64 )PLANE_ANGLE_UNIT(  )SI_UNIT( $, .RADIAN. ) );
#47 =  ( NAMED_UNIT( #64 )SOLID_ANGLE_UNIT(  )SI_UNIT( $, .STERADIAN. ) );
#49 = COORDINATED_UNIVERSAL_TIME_OFFSET( 8, 0, .AHEAD. );
#50 = PERSON( '', 'UNSPECIFIED', $, $, $, $ );
#51 = ORGANIZATION( 'UNSPECIFIED', 'UNSPECIFIED', 'UNSPECIFIED' );
#52 = APPROVAL_STATUS( 'approved' );
#53 = SECURITY_CLASSIFICATION_LEVEL( 'unclassified' );
#54 = MECHANICAL_CONTEXT( '', #27, 'mechanical' );
#55 = MANIFOLD_SOLID_BREP( '1', #70 );
#56 = AXIS2_PLACEMENT_3D( '', #71, #72, #73 );
#59 = LENGTH_MEASURE_WITH_UNIT( LENGTH_MEASURE( 1.00000000000000 ), #74 );
#62 = DIMENSIONAL_EXPONENTS( 1.00000000000000, 0.000000000000000, 0.000000000000000, 0.000000000000000, 0.000000000000000, 0.000000000000000, 0.000000000000000 );
#64 = DIMENSIONAL_EXPONENTS( 0.000000000000000, 0.000000000000000, 0.000000000000000, 0.000000000000000, 0.000000000000000, 0.000000000000000, 0.000000000000000 );
#70 = CLOSED_SHELL( '', ( #75, #76, #77, #78, #79, #80, #81, #82, #83, #84, #85 ) );
#71 = CARTESIAN_POINT( '', ( 0.000000000000000, 0.000000000000000, 0.000000000000000 ) );
#72 = DIRECTION( '', ( 0.000000000000000, 0.000000000000000, 1.00000000000000 ) );
#73 = DIRECTION( '', ( 1.00000000000000, 0.000000000000000, 0.000000000000000 ) );
#74 =  ( NAMED_UNIT( #62 )LENGTH_UNIT(  )SI_UNIT( .MILLI., .METRE. ) );
#75 = ADVANCED_FACE( '', ( #87, #88 ), #89, .T. );
#76 = ADVANCED_FACE( '', ( #90, #91 ), #92, .F. );
#77 = ADVANCED_FACE( '', ( #93, #94 ), #95, .T. );
#78 = ADVANCED_FACE( '', ( #96, #97 ), #98, .T. );
#79 = ADVANCED_FACE( '', ( #99, #100 ), #101, .T. );
#80 = ADVANCED_FACE( '', ( #102, #103 ), #104, .T. );
#81 = ADVANCED_FACE( '', ( #105, #106 ), #107, .F. );
#82 = ADVANCED_FACE( '', ( #108, #109 ), #110, .T. );
#83 = ADVANCED_FACE( '', ( #111, #112 ), #113, .T. );
#84 = ADVANCED_FACE( '', ( #114, #115 ), #116, .F. );
#85 = ADVANCED_FACE( '', ( #117, #118 ), #119, .T. );
#87 = FACE_BOUND( '', #120, .T. );
#88 = FACE_OUTER_BOUND( '', #121, .T. );
#89 = PLANE( '', #122 );
#90 = FACE_OUTER_BOUND( '', #123, .T. );
#91 = FACE_BOUND( '', #124, .T. );
#92 = CONICAL_SURFACE( '', #125, 4.25000000000000, 0.785398163397449 );
#93 = FACE_OUTER_BOUND( '', #126, .T. );
#94 = FACE_OUTER_BOUND( '', #127, .T. );
#95 = CYLINDRICAL_SURFACE( '', #128, 10.0000000000000 );
#96 = FACE_OUTER_BOUND( '', #129, .T. );
#97 = FACE_BOUND( '', #130, .T. );
#98 = PLANE( '', #131 );
#99 = FACE_OUTER_BOUND( '', #132, .T. );
#100 = FACE_OUTER_BOUND( '', #133, .T. );
#101 = CYLINDRICAL_SURFACE( '', #134, 12.5000000000000 );
#102 = FACE_BOUND( '', #135, .T. );
#103 = FACE_OUTER_BOUND( '', #136, .T. );
#104 = PLANE( '', #137 );
#105 = FACE_BOUND( '', #138, .T. );
#106 = FACE_OUTER_BOUND( '', #139, .T. );
#107 = CONICAL_SURFACE( '', #140, 5.25000000000000, 0.785398163397448 );
#108 = FACE_OUTER_BOUND( '', #141, .T. );
#109 = FACE_BOUND( '', #142, .T. );
#110 = CONICAL_SURFACE( '', #143, 9.50000000000000, 0.785398163397448 );
#111 = FACE_OUTER_BOUND( '', #144, .T. );
#112 = FACE_BOUND( '', #145, .T. );
#113 = CONICAL_SURFACE( '', #146, 12.0000000000000, 0.785398163397448 );
#114 = FACE_OUTER_BOUND( '', #147, .T. );
#115 = FACE_OUTER_BOUND( '', #148, .T. );
#116 = CYLINDRICAL_SURFACE( '', #149, 4.25000000000000 );
#117 = FACE_BOUND( '', #150, .T. );
#118 = FACE_OUTER_BOUND( '', #151, .T. );
#119 = CONICAL_SURFACE( '', #152, 12.5000000000000, 0.785398163397448 );
#120 = EDGE_LOOP( '', ( #153 ) );
#121 = EDGE_LOOP( '', ( #154 ) );
#122 = AXIS2_PLACEMENT_3D( '', #155, #156, #157 );
#123 = EDGE_LOOP( '', ( #158 ) );
#124 = EDGE_LOOP( '', ( #159 ) );
#125 = AXIS2_PLACEMENT_3D( '', #160, #161, #162 );
#126 = EDGE_LOOP( '', ( #163 ) );
#127 = EDGE_LOOP( '', ( #164 ) );
#128 = AXIS2_PLACEMENT_3D( '', #165, #166, #167 );
#129 = EDGE_LOOP( '', ( #168 ) );
#130 = EDGE_LOOP( '', ( #169 ) );
#131 = AXIS2_PLACEMENT_3D( '', #170, #171, #172 );
#132 = EDGE_LOOP( '', ( #173 ) );
#133 = EDGE_LOOP( '', ( #174 ) );
#134 = AXIS2_PLACEMENT_3D( '', #175, #176, #177 );
#135 = EDGE_LOOP( '', ( #178 ) );
#136 = EDGE_LOOP( '', ( #179 ) );
#137 = AXIS2_PLACEMENT_3D( '', #180, #181, #182 );
#138 = EDGE_LOOP( '', ( #183 ) );
#139 = EDGE_LOOP( '', ( #184 ) );
#140 = AXIS2_PLACEMENT_3D( '', #185, #186, #187 );
#141 = EDGE_LOOP( '', ( #188 ) );
#142 = EDGE_LOOP( '', ( #189 ) );
#143 = AXIS2_PLACEMENT_3D( '', #190, #191, #192 );
#144 = EDGE_LOOP( '', ( #193 ) );
#145 = EDGE_LOOP( '', ( #194 ) );
#146 = AXIS2_PLACEMENT_3D( '', #195, #196, #197 );
#147 = EDGE_LOOP( '', ( #198 ) );
#148 = EDGE_LOOP( '', ( #199 ) );
#149 = AXIS2_PLACEMENT_3D( '', #200, #201, #202 );
#150 = EDGE_LOOP( '', ( #203 ) );
#151 = EDGE_LOOP( '', ( #204 ) );
#152 = AXIS2_PLACEMENT_3D( '', #205, #206, #207 );
#153 = ORIENTED_EDGE( '', *, *, #208, .T. );
#154 = ORIENTED_EDGE( '', *, *, #209, .T. );
#155 = CARTESIAN_POINT( '', ( 0.000000000000000, 0.000000000000000, 10.0000000000000 ) );
#156 = DIRECTION( '', ( 0.000000000000000, 0.000000000000000, 1.00000000000000 ) );
#157 = DIRECTION( '', ( 1.00000000000000, 0.000000000000000, 0.000000000000000 ) );
#158 = ORIENTED_EDGE( '', *, *, #208, .F. );
#159 = ORIENTED_EDGE( '', *, *, #210, .F. );
#160 = CARTESIAN_POINT( '', ( 0.000000000000000, 0.000000000000000, 9.00000000000000 ) );
#161 = DIRECTION( '', ( -0.000000000000000, -0.000000000000000, 1.00000000000000 ) );
#162 = DIRECTION( '', ( 1.00000000000000, 0.000000000000000, 0.000000000000000 ) );
#163 = ORIENTED_EDGE( '', *, *, #211, .T. );
#164 = ORIENTED_EDGE( '', *, *, #212, .T. );
#165 = CARTESIAN_POINT( '', ( 0.000000000000000, 0.000000000000000, 54.0000000000000 ) );
#166 = DIRECTION( '', ( -0.000000000000000, -0.000000000000000, -1.00000000000000 ) );
#167 = DIRECTION( '', ( 1.00000000000000, 0.000000000000000, 0.000000000000000 ) );
#168 = ORIENTED_EDGE( '', *, *, #213, .T. );
#169 = ORIENTED_EDGE( '', *, *, #212, .F. );
#170 = CARTESIAN_POINT( '', ( 10.0000000000000, 0.000000000000000, 8.00000000000000 ) );
#171 = DIRECTION( '', ( 0.000000000000000, 0.000000000000000, 1.00000000000000 ) );
#172 = DIRECTION( '', ( 1.00000000000000, 0.000000000000000, 0.000000000000000 ) );
#173 = ORIENTED_EDGE( '', *, *, #214, .T. );
#174 = ORIENTED_EDGE( '', *, *, #215, .T. );
#175 = CARTESIAN_POINT( '', ( 0.000000000000000, 0.000000000000000, 54.0000000000000 ) );
#176 = DIRECTION( '', ( -0.000000000000000, -0.000000000000000, -1.00000000000000 ) );
#177 = DIRECTION( '', ( 1.00000000000000, 0.000000000000000, 0.000000000000000 ) );
#178 = ORIENTED_EDGE( '', *, *, #216, .T. );
#179 = ORIENTED_EDGE( '', *, *, #217, .T. );
#180 = CARTESIAN_POINT( '', ( 12.5000000000000, 0.000000000000000, 6.27590427543234E-015 ) );
#181 = DIRECTION( '', ( 0.000000000000000, 0.000000000000000, -1.00000000000000 ) );
#182 = DIRECTION( '', ( -1.00000000000000, 0.000000000000000, 0.000000000000000 ) );
#183 = ORIENTED_EDGE( '', *, *, #218, .F. );
#184 = ORIENTED_EDGE( '', *, *, #216, .F. );
#185 = CARTESIAN_POINT( '', ( 0.000000000000000, 0.000000000000000, 6.27590427543234E-015 ) );
#186 = DIRECTION( '', ( -0.000000000000000, 0.000000000000000, -1.00000000000000 ) );
#187 = DIRECTION( '', ( -1.00000000000000, 0.000000000000000, 0.000000000000000 ) );
#188 = ORIENTED_EDGE( '', *, *, #211, .F. );
#189 = ORIENTED_EDGE( '', *, *, #209, .F. );
#190 = CARTESIAN_POINT( '', ( 0.000000000000000, 0.000000000000000, 10.0000000000000 ) );
#191 = DIRECTION( '', ( -0.000000000000000, 0.000000000000000, -1.00000000000000 ) );
#192 = DIRECTION( '', ( -1.00000000000000, 0.000000000000000, 0.000000000000000 ) );
#193 = ORIENTED_EDGE( '', *, *, #215, .F. );
#194 = ORIENTED_EDGE( '', *, *, #213, .F. );
#195 = CARTESIAN_POINT( '', ( 0.000000000000000, 0.000000000000000, 8.00000000000000 ) );
#196 = DIRECTION( '', ( -0.000000000000000, 0.000000000000000, -1.00000000000000 ) );
#197 = DIRECTION( '', ( -1.00000000000000, 0.000000000000000, 0.000000000000000 ) );
#198 = ORIENTED_EDGE( '', *, *, #218, .T. );
#199 = ORIENTED_EDGE( '', *, *, #210, .T. );
#200 = CARTESIAN_POINT( '', ( 0.000000000000000, 0.000000000000000, 0.000000000000000 ) );
#201 = DIRECTION( '', ( -0.000000000000000, 0.000000000000000, -1.00000000000000 ) );
#202 = DIRECTION( '', ( 0.000000000000000, 1.00000000000000, 0.000000000000000 ) );
#203 = ORIENTED_EDGE( '', *, *, #217, .F. );
#204 = ORIENTED_EDGE( '', *, *, #214, .F. );
#205 = CARTESIAN_POINT( '', ( 0.000000000000000, 0.000000000000000, 0.500000000000007 ) );
#206 = DIRECTION( '', ( -0.000000000000000, -0.000000000000000, 1.00000000000000 ) );
#207 = DIRECTION( '', ( 1.00000000000000, 0.000000000000000, 0.000000000000000 ) );
#208 = EDGE_CURVE( '', #219, #219, #220, .F. );
#209 = EDGE_CURVE( '', #221, #221, #222, .T. );
#210 = EDGE_CURVE( '', #223, #223, #224, .T. );
#211 = EDGE_CURVE( '', #225, #225, #226, .F. );
#212 = EDGE_CURVE( '', #227, #227, #228, .T. );
#213 = EDGE_CURVE( '', #229, #229, #230, .T. );
#214 = EDGE_CURVE( '', #231, #231, #232, .F. );
#215 = EDGE_CURVE( '', #233, #233, #234, .F. );
#216 = EDGE_CURVE( '', #235, #235, #236, .F. );
#217 = EDGE_CURVE( '', #237, #237, #238, .T. );
#218 = EDGE_CURVE( '', #239, #239, #240, .T. );
#219 = VERTEX_POINT( '', #241 );
#220 = CIRCLE( '', #242, 5.25000000000000 );
#221 = VERTEX_POINT( '', #243 );
#222 = CIRCLE( '', #244, 9.50000000000000 );
#223 = VERTEX_POINT( '', #245 );
#224 = CIRCLE( '', #246, 4.25000000000000 );
#225 = VERTEX_POINT( '', #247 );
#226 = CIRCLE( '', #248, 10.0000000000000 );
#227 = VERTEX_POINT( '', #249 );
#228 = CIRCLE( '', #250, 10.0000000000000 );
#229 = VERTEX_POINT( '', #251 );
#230 = CIRCLE( '', #252, 12.0000000000000 );
#231 = VERTEX_POINT( '', #253 );
#232 = CIRCLE( '', #254, 12.5000000000000 );
#233 = VERTEX_POINT( '', #255 );
#234 = CIRCLE( '', #256, 12.5000000000000 );
#235 = VERTEX_POINT( '', #257 );
#236 = CIRCLE( '', #258, 5.25000000000000 );
#237 = VERTEX_POINT( '', #259 );
#238 = CIRCLE( '', #260, 12.0000000000000 );
#239 = VERTEX_POINT( '', #261 );
#240 = CIRCLE( '', #262, 4.25000000000000 );
#241 = CARTESIAN_POINT( '', ( 5.25000000000000, 0.000000000000000, 10.0000000000000 ) );
#242 = AXIS2_PLACEMENT_3D( '', #263, #264, #265 );
#243 = CARTESIAN_POINT( '', ( 9.50000000000000, 0.000000000000000, 10.0000000000000 ) );
#244 = AXIS2_PLACEMENT_3D( '', #266, #267, #268 );
#245 = CARTESIAN_POINT( '', ( 4.25000000000000, 0.000000000000000, 9.00000000000000 ) );
#246 = AXIS2_PLACEMENT_3D( '', #269, #270, #271 );
#247 = CARTESIAN_POINT( '', ( 10.0000000000000, 0.000000000000000, 9.50000000000000 ) );
#248 = AXIS2_PLACEMENT_3D( '', #272, #273, #274 );
#249 = CARTESIAN_POINT( '', ( 10.0000000000000, 0.000000000000000, 8.00000000000000 ) );
#250 = AXIS2_PLACEMENT_3D( '', #275, #276, #277 );
#251 = CARTESIAN_POINT( '', ( 12.0000000000000, 0.000000000000000, 8.00000000000000 ) );
#252 = AXIS2_PLACEMENT_3D( '', #278, #279, #280 );
#253 = CARTESIAN_POINT( '', ( -12.5000000000000, 0.000000000000000, 0.500000000000007 ) );
#254 = AXIS2_PLACEMENT_3D( '', #281, #282, #283 );
#255 = CARTESIAN_POINT( '', ( 12.5000000000000, 0.000000000000000, 7.50000000000000 ) );
#256 = AXIS2_PLACEMENT_3D( '', #284, #285, #286 );
#257 = CARTESIAN_POINT( '', ( -5.25000000000000, 0.000000000000000, 6.27590427543234E-015 ) );
#258 = AXIS2_PLACEMENT_3D( '', #287, #288, #289 );
#259 = CARTESIAN_POINT( '', ( -12.0000000000000, 0.000000000000000, 6.27590427543234E-015 ) );
#260 = AXIS2_PLACEMENT_3D( '', #290, #291, #292 );
#261 = CARTESIAN_POINT( '', ( -4.25000000000000, 0.000000000000000, 1.00000000000000 ) );
#262 = AXIS2_PLACEMENT_3D( '', #293, #294, #295 );
#263 = CARTESIAN_POINT( '', ( 0.000000000000000, 0.000000000000000, 10.0000000000000 ) );
#264 = DIRECTION( '', ( 0.000000000000000, 0.000000000000000, 1.00000000000000 ) );
#265 = DIRECTION( '', ( 1.00000000000000, 0.000000000000000, 0.000000000000000 ) );
#266 = CARTESIAN_POINT( '', ( 0.000000000000000, 0.000000000000000, 10.0000000000000 ) );
#267 = DIRECTION( '', ( 0.000000000000000, 0.000000000000000, 1.00000000000000 ) );
#268 = DIRECTION( '', ( 1.00000000000000, 0.000000000000000, 0.000000000000000 ) );
#269 = CARTESIAN_POINT( '', ( 0.000000000000000, 0.000000000000000, 9.00000000000000 ) );
#270 = DIRECTION( '', ( 0.000000000000000, 0.000000000000000, 1.00000000000000 ) );
#271 = DIRECTION( '', ( 1.00000000000000, 0.000000000000000, 0.000000000000000 ) );
#272 = CARTESIAN_POINT( '', ( 0.000000000000000, 0.000000000000000, 9.50000000000000 ) );
#273 = DIRECTION( '', ( 0.000000000000000, 0.000000000000000, 1.00000000000000 ) );
#274 = DIRECTION( '', ( 1.00000000000000, 0.000000000000000, 0.000000000000000 ) );
#275 = CARTESIAN_POINT( '', ( 0.000000000000000, 0.000000000000000, 8.00000000000000 ) );
#276 = DIRECTION( '', ( 0.000000000000000, 0.000000000000000, 1.00000000000000 ) );
#277 = DIRECTION( '', ( 1.00000000000000, 0.000000000000000, 0.000000000000000 ) );
#278 = CARTESIAN_POINT( '', ( 0.000000000000000, 0.000000000000000, 8.00000000000000 ) );
#279 = DIRECTION( '', ( 0.000000000000000, 0.000000000000000, 1.00000000000000 ) );
#280 = DIRECTION( '', ( 1.00000000000000, 0.000000000000000, 0.000000000000000 ) );
#281 = CARTESIAN_POINT( '', ( 0.000000000000000, 0.000000000000000, 0.500000000000007 ) );
#282 = DIRECTION( '', ( 0.000000000000000, 0.000000000000000, -1.00000000000000 ) );
#283 = DIRECTION( '', ( -1.00000000000000, 0.000000000000000, 0.000000000000000 ) );
#284 = CARTESIAN_POINT( '', ( 0.000000000000000, 0.000000000000000, 7.50000000000000 ) );
#285 = DIRECTION( '', ( 0.000000000000000, 0.000000000000000, 1.00000000000000 ) );
#286 = DIRECTION( '', ( 1.00000000000000, 0.000000000000000, 0.000000000000000 ) );
#287 = CARTESIAN_POINT( '', ( 0.000000000000000, 0.000000000000000, 6.27590427543234E-015 ) );
#288 = DIRECTION( '', ( 0.000000000000000, 0.000000000000000, -1.00000000000000 ) );
#289 = DIRECTION( '', ( -1.00000000000000, 0.000000000000000, 0.000000000000000 ) );
#290 = CARTESIAN_POINT( '', ( 0.000000000000000, 0.000000000000000, 6.27590427543234E-015 ) );
#291 = DIRECTION( '', ( 0.000000000000000, 0.000000000000000, -1.00000000000000 ) );
#292 = DIRECTION( '', ( -1.00000000000000, 0.000000000000000, 0.000000000000000 ) );
#293 = CARTESIAN_POINT( '', ( 0.000000000000000, 0.000000000000000, 1.00000000000000 ) );
#294 = DIRECTION( '', ( 0.000000000000000, 0.000000000000000, -1.00000000000000 ) );
#295 = DIRECTION( '', ( -1.00000000000000, 0.000000000000000, 0.000000000000000 ) );
ENDSEC;
END-ISO-10303-21;
