ISO-10303-21;
HEADER;
FILE_DESCRIPTION( ( 'Unknown' ), '1' );
FILE_NAME( 'f:/¼È¦s/PT-3D/PT09-3D/PT09-12100.stp', 'Unknown', ( 'Unknown' ), ( 'Unknown' ), 'XStep 1.0', 'Unknown', '  ' );
FILE_SCHEMA( ( 'CONFIG_CONTROL_DESIGN' ) );
ENDSEC;
DATA;
#1 = DESIGN_CONTEXT( '', #27, 'design' );
#2 = APPLICATION_PROTOCOL_DEFINITION( 'INTERNATIONAL STANDARD', 'config_control_design', 1994, #27 );
#3 = PRODUCT_CATEGORY_RELATIONSHIP( 'NONE', 'NONE', #28, #29 );
#4 = DATE_AND_TIME( #30, #31 );
#5 = DATE_TIME_ROLE( 'creation_date' );
#6 = DATE_TIME_ROLE( 'classification_date' );
#7 = PERSON_AND_ORGANIZATION_ROLE( 'creator' );
#8 = PERSON_AND_ORGANIZATION_ROLE( 'design_supplier' );
#9 = PERSON_AND_ORGANIZATION_ROLE( 'classification_officer' );
#10 = PERSON_AND_ORGANIZATION_ROLE( 'design_owner' );
#11 = APPROVAL_PERSON_ORGANIZATION( #32, #33, #34 );
#12 = APPROVAL_DATE_TIME( #4, #33 );
#13 = CC_DESIGN_APPROVAL( #33, ( #35, #36, #37 ) );
#14 = CC_DESIGN_DATE_AND_TIME_ASSIGNMENT( #4, #5, ( #37 ) );
#15 = CC_DESIGN_DATE_AND_TIME_ASSIGNMENT( #4, #6, ( #35 ) );
#16 = CC_DESIGN_PERSON_AND_ORGANIZATION_ASSIGNMENT( #32, #10, ( #38 ) );
#17 = CC_DESIGN_PERSON_AND_ORGANIZATION_ASSIGNMENT( #32, #7, ( #37 ) );
#18 = CC_DESIGN_PERSON_AND_ORGANIZATION_ASSIGNMENT( #32, #7, ( #36 ) );
#19 = CC_DESIGN_PERSON_AND_ORGANIZATION_ASSIGNMENT( #32, #8, ( #36 ) );
#20 = CC_DESIGN_SECURITY_CLASSIFICATION( #35, ( #36 ) );
#21 = CC_DESIGN_PERSON_AND_ORGANIZATION_ASSIGNMENT( #32, #9, ( #35 ) );
#22 = SHAPE_DEFINITION_REPRESENTATION( #39, #40 );
#23 =  ( GEOMETRIC_REPRESENTATION_CONTEXT( 3 )GLOBAL_UNCERTAINTY_ASSIGNED_CONTEXT( ( #43 ) )GLOBAL_UNIT_ASSIGNED_CONTEXT( ( #45, #46, #47 ) )REPRESENTATION_CONTEXT( 'NONE', 'WORKSPACE' ) );
#27 = APPLICATION_CONTEXT( 'CONFIGURATION CONTROLLED 3D DESIGNS OF MECHANICAL PARTS AND ASSEMBLIES' );
#28 = PRODUCT_CATEGORY( 'part', 'NONE' );
#29 = PRODUCT_RELATED_PRODUCT_CATEGORY( 'detail', ' ', ( #38 ) );
#30 = CALENDAR_DATE( 2009, 9, 10 );
#31 = LOCAL_TIME( 10, 35, 21.0000000000000, #49 );
#32 = PERSON_AND_ORGANIZATION( #50, #51 );
#33 = APPROVAL( #52, 'SOLID MODEL' );
#34 = APPROVAL_ROLE( 'APPROVED' );
#35 = SECURITY_CLASSIFICATION( '', '', #53 );
#36 = PRODUCT_DEFINITION_FORMATION_WITH_SPECIFIED_SOURCE( ' ', 'NONE', #38, .NOT_KNOWN. );
#37 = PRODUCT_DEFINITION( 'NONE', 'NONE', #36, #1 );
#38 = PRODUCT( '1', '1', 'PART-1-DESC', ( #54 ) );
#39 = PRODUCT_DEFINITION_SHAPE( 'NONE', 'NONE', #37 );
#40 = ADVANCED_BREP_SHAPE_REPRESENTATION( '1', ( #55, #56 ), #23 );
#43 = UNCERTAINTY_MEASURE_WITH_UNIT( LENGTH_MEASURE( 0.00100000000000000 ), #45, '', '' );
#45 =  ( CONVERSION_BASED_UNIT( 'MILLIMETRE', #59 )LENGTH_UNIT(  )NAMED_UNIT( #62 ) );
#46 =  ( NAMED_UNIT( #64 )PLANE_ANGLE_UNIT(  )SI_UNIT( $, .RADIAN. ) );
#47 =  ( NAMED_UNIT( #64 )SOLID_ANGLE_UNIT(  )SI_UNIT( $, .STERADIAN. ) );
#49 = COORDINATED_UNIVERSAL_TIME_OFFSET( 8, 0, .AHEAD. );
#50 = PERSON( '', 'UNSPECIFIED', $, $, $, $ );
#51 = ORGANIZATION( 'UNSPECIFIED', 'UNSPECIFIED', 'UNSPECIFIED' );
#52 = APPROVAL_STATUS( 'approved' );
#53 = SECURITY_CLASSIFICATION_LEVEL( 'unclassified' );
#54 = MECHANICAL_CONTEXT( '', #27, 'mechanical' );
#55 = MANIFOLD_SOLID_BREP( '1', #70 );
#56 = AXIS2_PLACEMENT_3D( '', #71, #72, #73 );
#59 = LENGTH_MEASURE_WITH_UNIT( LENGTH_MEASURE( 1.00000000000000 ), #74 );
#62 = DIMENSIONAL_EXPONENTS( 1.00000000000000, 0.000000000000000, 0.000000000000000, 0.000000000000000, 0.000000000000000, 0.000000000000000, 0.000000000000000 );
#64 = DIMENSIONAL_EXPONENTS( 0.000000000000000, 0.000000000000000, 0.000000000000000, 0.000000000000000, 0.000000000000000, 0.000000000000000, 0.000000000000000 );
#70 = CLOSED_SHELL( '', ( #75, #76, #77, #78, #79, #80, #81, #82, #83, #84 ) );
#71 = CARTESIAN_POINT( '', ( 0.000000000000000, 0.000000000000000, 0.000000000000000 ) );
#72 = DIRECTION( '', ( 0.000000000000000, 0.000000000000000, 1.00000000000000 ) );
#73 = DIRECTION( '', ( 1.00000000000000, 0.000000000000000, 0.000000000000000 ) );
#74 =  ( NAMED_UNIT( #62 )LENGTH_UNIT(  )SI_UNIT( .MILLI., .METRE. ) );
#75 = ADVANCED_FACE( '', ( #86, #87, #88 ), #89, .T. );
#76 = ADVANCED_FACE( '', ( #90, #91 ), #92, .F. );
#77 = ADVANCED_FACE( '', ( #93, #94 ), #95, .T. );
#78 = ADVANCED_FACE( '', ( #96, #97 ), #98, .T. );
#79 = ADVANCED_FACE( '', ( #99, #100 ), #101, .T. );
#80 = ADVANCED_FACE( '', ( #102 ), #103, .T. );
#81 = ADVANCED_FACE( '', ( #104, #105 ), #106, .F. );
#82 = ADVANCED_FACE( '', ( #107, #108 ), #109, .F. );
#83 = ADVANCED_FACE( '', ( #110, #111 ), #112, .T. );
#84 = ADVANCED_FACE( '', ( #113, #114 ), #115, .F. );
#86 = FACE_BOUND( '', #116, .T. );
#87 = FACE_OUTER_BOUND( '', #117, .T. );
#88 = FACE_OUTER_BOUND( '', #118, .T. );
#89 = SPHERICAL_SURFACE( '', #119, 12.5000000000000 );
#90 = FACE_BOUND( '', #120, .T. );
#91 = FACE_OUTER_BOUND( '', #121, .T. );
#92 = CONICAL_SURFACE( '', #122, 7.00000000000000, 0.785398163397448 );
#93 = FACE_BOUND( '', #123, .T. );
#94 = FACE_OUTER_BOUND( '', #124, .T. );
#95 = PLANE( '', #125 );
#96 = FACE_OUTER_BOUND( '', #126, .T. );
#97 = FACE_OUTER_BOUND( '', #127, .T. );
#98 = CYLINDRICAL_SURFACE( '', #128, 6.00000000000000 );
#99 = FACE_BOUND( '', #129, .T. );
#100 = FACE_OUTER_BOUND( '', #130, .T. );
#101 = PLANE( '', #131 );
#102 = FACE_OUTER_BOUND( '', #132, .T. );
#103 = PLANE( '', #133 );
#104 = FACE_OUTER_BOUND( '', #134, .T. );
#105 = FACE_OUTER_BOUND( '', #135, .T. );
#106 = TOROIDAL_SURFACE( '', #136, 8.00000000000000, 2.00000000000000 );
#107 = FACE_OUTER_BOUND( '', #137, .T. );
#108 = FACE_OUTER_BOUND( '', #138, .T. );
#109 = CYLINDRICAL_SURFACE( '', #139, 6.00000000000000 );
#110 = FACE_OUTER_BOUND( '', #140, .T. );
#111 = FACE_BOUND( '', #141, .T. );
#112 = CONICAL_SURFACE( '', #142, 5.00000000000000, 0.785398163397448 );
#113 = FACE_BOUND( '', #143, .T. );
#114 = FACE_OUTER_BOUND( '', #144, .T. );
#115 = CONICAL_SURFACE( '', #145, 7.00000000000000, 0.785398163397448 );
#116 = EDGE_LOOP( '', ( #146 ) );
#117 = EDGE_LOOP( '', ( #147 ) );
#118 = EDGE_LOOP( '', ( #148 ) );
#119 = AXIS2_PLACEMENT_3D( '', #149, #150, #151 );
#120 = EDGE_LOOP( '', ( #152 ) );
#121 = EDGE_LOOP( '', ( #153 ) );
#122 = AXIS2_PLACEMENT_3D( '', #154, #155, #156 );
#123 = EDGE_LOOP( '', ( #157 ) );
#124 = EDGE_LOOP( '', ( #158 ) );
#125 = AXIS2_PLACEMENT_3D( '', #159, #160, #161 );
#126 = EDGE_LOOP( '', ( #162 ) );
#127 = EDGE_LOOP( '', ( #163 ) );
#128 = AXIS2_PLACEMENT_3D( '', #164, #165, #166 );
#129 = EDGE_LOOP( '', ( #167 ) );
#130 = EDGE_LOOP( '', ( #168 ) );
#131 = AXIS2_PLACEMENT_3D( '', #169, #170, #171 );
#132 = EDGE_LOOP( '', ( #172 ) );
#133 = AXIS2_PLACEMENT_3D( '', #173, #174, #175 );
#134 = EDGE_LOOP( '', ( #176 ) );
#135 = EDGE_LOOP( '', ( #177 ) );
#136 = AXIS2_PLACEMENT_3D( '', #178, #179, #180 );
#137 = EDGE_LOOP( '', ( #181 ) );
#138 = EDGE_LOOP( '', ( #182 ) );
#139 = AXIS2_PLACEMENT_3D( '', #183, #184, #185 );
#140 = EDGE_LOOP( '', ( #186 ) );
#141 = EDGE_LOOP( '', ( #187 ) );
#142 = AXIS2_PLACEMENT_3D( '', #188, #189, #190 );
#143 = EDGE_LOOP( '', ( #191 ) );
#144 = EDGE_LOOP( '', ( #192 ) );
#145 = AXIS2_PLACEMENT_3D( '', #193, #194, #195 );
#146 = ORIENTED_EDGE( '', *, *, #196, .T. );
#147 = ORIENTED_EDGE( '', *, *, #197, .F. );
#148 = ORIENTED_EDGE( '', *, *, #198, .T. );
#149 = CARTESIAN_POINT( '', ( 0.000000000000000, 0.000000000000000, 8.67361737988404E-016 ) );
#150 = DIRECTION( '', ( 0.000000000000000, 0.000000000000000, 1.00000000000000 ) );
#151 = DIRECTION( '', ( 1.00000000000000, 0.000000000000000, 0.000000000000000 ) );
#152 = ORIENTED_EDGE( '', *, *, #199, .F. );
#153 = ORIENTED_EDGE( '', *, *, #200, .F. );
#154 = CARTESIAN_POINT( '', ( 0.000000000000000, 0.000000000000000, 7.00000000000000 ) );
#155 = DIRECTION( '', ( -0.000000000000000, -0.000000000000000, 1.00000000000000 ) );
#156 = DIRECTION( '', ( 1.00000000000000, 0.000000000000000, 0.000000000000000 ) );
#157 = ORIENTED_EDGE( '', *, *, #201, .T. );
#158 = ORIENTED_EDGE( '', *, *, #198, .F. );
#159 = CARTESIAN_POINT( '', ( 10.3561575886040, 0.000000000000000, -7.00000000000000 ) );
#160 = DIRECTION( '', ( 0.000000000000000, 0.000000000000000, -1.00000000000000 ) );
#161 = DIRECTION( '', ( -1.00000000000000, 0.000000000000000, 0.000000000000000 ) );
#162 = ORIENTED_EDGE( '', *, *, #202, .T. );
#163 = ORIENTED_EDGE( '', *, *, #203, .T. );
#164 = CARTESIAN_POINT( '', ( 100.000000000000, 0.000000000000000, -1.73472347597680E-015 ) );
#165 = DIRECTION( '', ( 1.00000000000000, -0.000000000000000, -0.000000000000000 ) );
#166 = DIRECTION( '', ( 0.000000000000000, 0.000000000000000, 1.00000000000000 ) );
#167 = ORIENTED_EDGE( '', *, *, #200, .T. );
#168 = ORIENTED_EDGE( '', *, *, #197, .T. );
#169 = CARTESIAN_POINT( '', ( 6.61363325216158E-015, 0.000000000000000, 7.00000000000000 ) );
#170 = DIRECTION( '', ( 0.000000000000000, 0.000000000000000, 1.00000000000000 ) );
#171 = DIRECTION( '', ( 1.00000000000000, 0.000000000000000, 0.000000000000000 ) );
#172 = ORIENTED_EDGE( '', *, *, #204, .T. );
#173 = CARTESIAN_POINT( '', ( 100.000000000000, 0.000000000000000, -1.73472347597680E-015 ) );
#174 = DIRECTION( '', ( 1.00000000000000, -6.12303176911189E-017, 0.000000000000000 ) );
#175 = DIRECTION( '', ( 6.12303176911189E-017, 1.00000000000000, 0.000000000000000 ) );
#176 = ORIENTED_EDGE( '', *, *, #203, .F. );
#177 = ORIENTED_EDGE( '', *, *, #196, .F. );
#178 = CARTESIAN_POINT( '', ( 12.0933866224478, 0.000000000000000, -1.73472347597680E-015 ) );
#179 = DIRECTION( '', ( -1.00000000000000, 0.000000000000000, 0.000000000000000 ) );
#180 = DIRECTION( '', ( 0.000000000000000, 0.000000000000000, 1.00000000000000 ) );
#181 = ORIENTED_EDGE( '', *, *, #205, .T. );
#182 = ORIENTED_EDGE( '', *, *, #199, .T. );
#183 = CARTESIAN_POINT( '', ( 0.000000000000000, 0.000000000000000, -116.091558693989 ) );
#184 = DIRECTION( '', ( -0.000000000000000, -0.000000000000000, -1.00000000000000 ) );
#185 = DIRECTION( '', ( 1.00000000000000, 0.000000000000000, 0.000000000000000 ) );
#186 = ORIENTED_EDGE( '', *, *, #202, .F. );
#187 = ORIENTED_EDGE( '', *, *, #204, .F. );
#188 = CARTESIAN_POINT( '', ( 100.000000000000, 0.000000000000000, -1.73472347597680E-015 ) );
#189 = DIRECTION( '', ( -1.00000000000000, 0.000000000000000, -0.000000000000000 ) );
#190 = DIRECTION( '', ( 0.000000000000000, 0.000000000000000, 1.00000000000000 ) );
#191 = ORIENTED_EDGE( '', *, *, #205, .F. );
#192 = ORIENTED_EDGE( '', *, *, #201, .F. );
#193 = CARTESIAN_POINT( '', ( 0.000000000000000, 0.000000000000000, -7.00000000000000 ) );
#194 = DIRECTION( '', ( -0.000000000000000, 0.000000000000000, -1.00000000000000 ) );
#195 = DIRECTION( '', ( -1.00000000000000, 0.000000000000000, 0.000000000000000 ) );
#196 = EDGE_CURVE( '', #206, #206, #207, .T. );
#197 = EDGE_CURVE( '', #208, #208, #209, .T. );
#198 = EDGE_CURVE( '', #210, #210, #211, .T. );
#199 = EDGE_CURVE( '', #212, #212, #213, .T. );
#200 = EDGE_CURVE( '', #214, #214, #215, .F. );
#201 = EDGE_CURVE( '', #216, #216, #217, .F. );
#202 = EDGE_CURVE( '', #218, #218, #219, .F. );
#203 = EDGE_CURVE( '', #220, #220, #221, .F. );
#204 = EDGE_CURVE( '', #222, #222, #223, .T. );
#205 = EDGE_CURVE( '', #224, #224, #225, .T. );
#206 = VERTEX_POINT( '', #226 );
#207 = CIRCLE( '', #227, 6.89655172413793 );
#208 = VERTEX_POINT( '', #228 );
#209 = CIRCLE( '', #229, 10.3561575886040 );
#210 = VERTEX_POINT( '', #230 );
#211 = CIRCLE( '', #231, 10.3561575886040 );
#212 = VERTEX_POINT( '', #232 );
#213 = CIRCLE( '', #233, 6.00000000000000 );
#214 = VERTEX_POINT( '', #234 );
#215 = CIRCLE( '', #235, 7.00000000000000 );
#216 = VERTEX_POINT( '', #236 );
#217 = CIRCLE( '', #237, 7.00000000000000 );
#218 = VERTEX_POINT( '', #238 );
#219 = CIRCLE( '', #239, 6.00000000000000 );
#220 = VERTEX_POINT( '', #240 );
#221 = CIRCLE( '', #241, 6.00000000000000 );
#222 = VERTEX_POINT( '', #242 );
#223 = CIRCLE( '', #243, 5.00000000000000 );
#224 = VERTEX_POINT( '', #244 );
#225 = CIRCLE( '', #245, 6.00000000000000 );
#226 = CARTESIAN_POINT( '', ( 10.4253332952136, 0.000000000000000, 6.89655172413793 ) );
#227 = AXIS2_PLACEMENT_3D( '', #246, #247, #248 );
#228 = CARTESIAN_POINT( '', ( 10.3561575886040, 0.000000000000000, 7.00000000000000 ) );
#229 = AXIS2_PLACEMENT_3D( '', #249, #250, #251 );
#230 = CARTESIAN_POINT( '', ( 10.3561575886040, 0.000000000000000, -7.00000000000000 ) );
#231 = AXIS2_PLACEMENT_3D( '', #252, #253, #254 );
#232 = CARTESIAN_POINT( '', ( 6.00000000000000, 0.000000000000000, 6.00000000000000 ) );
#233 = AXIS2_PLACEMENT_3D( '', #255, #256, #257 );
#234 = CARTESIAN_POINT( '', ( 7.00000000000000, 0.000000000000000, 7.00000000000000 ) );
#235 = AXIS2_PLACEMENT_3D( '', #258, #259, #260 );
#236 = CARTESIAN_POINT( '', ( -7.00000000000000, 0.000000000000000, -7.00000000000000 ) );
#237 = AXIS2_PLACEMENT_3D( '', #261, #262, #263 );
#238 = CARTESIAN_POINT( '', ( 99.0000000000000, 0.000000000000000, -6.00000000000000 ) );
#239 = AXIS2_PLACEMENT_3D( '', #264, #265, #266 );
#240 = CARTESIAN_POINT( '', ( 12.0933866224478, 0.000000000000000, 6.00000000000000 ) );
#241 = AXIS2_PLACEMENT_3D( '', #267, #268, #269 );
#242 = CARTESIAN_POINT( '', ( 100.000000000000, 5.00000000000000, -1.73472347597680E-015 ) );
#243 = AXIS2_PLACEMENT_3D( '', #270, #271, #272 );
#244 = CARTESIAN_POINT( '', ( -6.00000000000000, 0.000000000000000, -6.00000000000000 ) );
#245 = AXIS2_PLACEMENT_3D( '', #273, #274, #275 );
#246 = CARTESIAN_POINT( '', ( 10.4253332952136, 0.000000000000000, 8.67361737988404E-016 ) );
#247 = DIRECTION( '', ( -1.00000000000000, 0.000000000000000, 0.000000000000000 ) );
#248 = DIRECTION( '', ( 0.000000000000000, 0.000000000000000, 1.00000000000000 ) );
#249 = CARTESIAN_POINT( '', ( 0.000000000000000, 0.000000000000000, 7.00000000000000 ) );
#250 = DIRECTION( '', ( 0.000000000000000, 0.000000000000000, 1.00000000000000 ) );
#251 = DIRECTION( '', ( 1.00000000000000, 0.000000000000000, 0.000000000000000 ) );
#252 = CARTESIAN_POINT( '', ( 0.000000000000000, 0.000000000000000, -7.00000000000000 ) );
#253 = DIRECTION( '', ( 0.000000000000000, 0.000000000000000, 1.00000000000000 ) );
#254 = DIRECTION( '', ( 1.00000000000000, 0.000000000000000, 0.000000000000000 ) );
#255 = CARTESIAN_POINT( '', ( 0.000000000000000, 0.000000000000000, 6.00000000000000 ) );
#256 = DIRECTION( '', ( 0.000000000000000, 0.000000000000000, 1.00000000000000 ) );
#257 = DIRECTION( '', ( 1.00000000000000, 0.000000000000000, 0.000000000000000 ) );
#258 = CARTESIAN_POINT( '', ( 0.000000000000000, 0.000000000000000, 7.00000000000000 ) );
#259 = DIRECTION( '', ( 0.000000000000000, 0.000000000000000, 1.00000000000000 ) );
#260 = DIRECTION( '', ( 1.00000000000000, 0.000000000000000, 0.000000000000000 ) );
#261 = CARTESIAN_POINT( '', ( 0.000000000000000, 0.000000000000000, -7.00000000000000 ) );
#262 = DIRECTION( '', ( 0.000000000000000, 0.000000000000000, -1.00000000000000 ) );
#263 = DIRECTION( '', ( -1.00000000000000, 0.000000000000000, 0.000000000000000 ) );
#264 = CARTESIAN_POINT( '', ( 99.0000000000000, 0.000000000000000, -1.73472347597680E-015 ) );
#265 = DIRECTION( '', ( 1.00000000000000, 0.000000000000000, 0.000000000000000 ) );
#266 = DIRECTION( '', ( 0.000000000000000, 0.000000000000000, -1.00000000000000 ) );
#267 = CARTESIAN_POINT( '', ( 12.0933866224478, 0.000000000000000, -1.73472347597680E-015 ) );
#268 = DIRECTION( '', ( -1.00000000000000, 0.000000000000000, 0.000000000000000 ) );
#269 = DIRECTION( '', ( 0.000000000000000, 0.000000000000000, 1.00000000000000 ) );
#270 = CARTESIAN_POINT( '', ( 100.000000000000, 0.000000000000000, -1.73472347597680E-015 ) );
#271 = DIRECTION( '', ( 1.00000000000000, -6.12303176911189E-017, 0.000000000000000 ) );
#272 = DIRECTION( '', ( 6.12303176911189E-017, 1.00000000000000, 0.000000000000000 ) );
#273 = CARTESIAN_POINT( '', ( 0.000000000000000, 0.000000000000000, -6.00000000000000 ) );
#274 = DIRECTION( '', ( 0.000000000000000, 0.000000000000000, -1.00000000000000 ) );
#275 = DIRECTION( '', ( -1.00000000000000, 0.000000000000000, 0.000000000000000 ) );
ENDSEC;
END-ISO-10303-21;
