ISO-10303-21;
HEADER;
FILE_DESCRIPTION( ( 'Unknown' ), '1' );
FILE_NAME( 'f:/¼È¦s/PT-3D/PT10-3D/PT10-2015.stp', 'Unknown', ( 'Unknown' ), ( 'Unknown' ), 'XStep 1.0', 'Unknown', '  ' );
FILE_SCHEMA( ( 'CONFIG_CONTROL_DESIGN' ) );
ENDSEC;
DATA;
#1 = DESIGN_CONTEXT( '', #27, 'design' );
#2 = APPLICATION_PROTOCOL_DEFINITION( 'INTERNATIONAL STANDARD', 'config_control_design', 1994, #27 );
#3 = PRODUCT_CATEGORY_RELATIONSHIP( 'NONE', 'NONE', #28, #29 );
#4 = DATE_AND_TIME( #30, #31 );
#5 = DATE_TIME_ROLE( 'creation_date' );
#6 = DATE_TIME_ROLE( 'classification_date' );
#7 = PERSON_AND_ORGANIZATION_ROLE( 'creator' );
#8 = PERSON_AND_ORGANIZATION_ROLE( 'design_supplier' );
#9 = PERSON_AND_ORGANIZATION_ROLE( 'classification_officer' );
#10 = PERSON_AND_ORGANIZATION_ROLE( 'design_owner' );
#11 = APPROVAL_PERSON_ORGANIZATION( #32, #33, #34 );
#12 = APPROVAL_DATE_TIME( #4, #33 );
#13 = CC_DESIGN_APPROVAL( #33, ( #35, #36, #37 ) );
#14 = CC_DESIGN_DATE_AND_TIME_ASSIGNMENT( #4, #5, ( #37 ) );
#15 = CC_DESIGN_DATE_AND_TIME_ASSIGNMENT( #4, #6, ( #35 ) );
#16 = CC_DESIGN_PERSON_AND_ORGANIZATION_ASSIGNMENT( #32, #10, ( #38 ) );
#17 = CC_DESIGN_PERSON_AND_ORGANIZATION_ASSIGNMENT( #32, #7, ( #37 ) );
#18 = CC_DESIGN_PERSON_AND_ORGANIZATION_ASSIGNMENT( #32, #7, ( #36 ) );
#19 = CC_DESIGN_PERSON_AND_ORGANIZATION_ASSIGNMENT( #32, #8, ( #36 ) );
#20 = CC_DESIGN_SECURITY_CLASSIFICATION( #35, ( #36 ) );
#21 = CC_DESIGN_PERSON_AND_ORGANIZATION_ASSIGNMENT( #32, #9, ( #35 ) );
#22 = SHAPE_DEFINITION_REPRESENTATION( #39, #40 );
#23 =  ( GEOMETRIC_REPRESENTATION_CONTEXT( 3 )GLOBAL_UNCERTAINTY_ASSIGNED_CONTEXT( ( #43 ) )GLOBAL_UNIT_ASSIGNED_CONTEXT( ( #45, #46, #47 ) )REPRESENTATION_CONTEXT( 'NONE', 'WORKSPACE' ) );
#27 = APPLICATION_CONTEXT( 'CONFIGURATION CONTROLLED 3D DESIGNS OF MECHANICAL PARTS AND ASSEMBLIES' );
#28 = PRODUCT_CATEGORY( 'part', 'NONE' );
#29 = PRODUCT_RELATED_PRODUCT_CATEGORY( 'detail', ' ', ( #38 ) );
#30 = CALENDAR_DATE( 2009, 9, 10 );
#31 = LOCAL_TIME( 10, 35, 32.0000000000000, #49 );
#32 = PERSON_AND_ORGANIZATION( #50, #51 );
#33 = APPROVAL( #52, 'SOLID MODEL' );
#34 = APPROVAL_ROLE( 'APPROVED' );
#35 = SECURITY_CLASSIFICATION( '', '', #53 );
#36 = PRODUCT_DEFINITION_FORMATION_WITH_SPECIFIED_SOURCE( ' ', 'NONE', #38, .NOT_KNOWN. );
#37 = PRODUCT_DEFINITION( 'NONE', 'NONE', #36, #1 );
#38 = PRODUCT( '1', '1', 'PART-1-DESC', ( #54 ) );
#39 = PRODUCT_DEFINITION_SHAPE( 'NONE', 'NONE', #37 );
#40 = ADVANCED_BREP_SHAPE_REPRESENTATION( '1', ( #55, #56 ), #23 );
#43 = UNCERTAINTY_MEASURE_WITH_UNIT( LENGTH_MEASURE( 0.00100000000000000 ), #45, '', '' );
#45 =  ( CONVERSION_BASED_UNIT( 'MILLIMETRE', #59 )LENGTH_UNIT(  )NAMED_UNIT( #62 ) );
#46 =  ( NAMED_UNIT( #64 )PLANE_ANGLE_UNIT(  )SI_UNIT( $, .RADIAN. ) );
#47 =  ( NAMED_UNIT( #64 )SOLID_ANGLE_UNIT(  )SI_UNIT( $, .STERADIAN. ) );
#49 = COORDINATED_UNIVERSAL_TIME_OFFSET( 8, 0, .AHEAD. );
#50 = PERSON( '', 'UNSPECIFIED', $, $, $, $ );
#51 = ORGANIZATION( 'UNSPECIFIED', 'UNSPECIFIED', 'UNSPECIFIED' );
#52 = APPROVAL_STATUS( 'approved' );
#53 = SECURITY_CLASSIFICATION_LEVEL( 'unclassified' );
#54 = MECHANICAL_CONTEXT( '', #27, 'mechanical' );
#55 = MANIFOLD_SOLID_BREP( '1', #70 );
#56 = AXIS2_PLACEMENT_3D( '', #71, #72, #73 );
#59 = LENGTH_MEASURE_WITH_UNIT( LENGTH_MEASURE( 1.00000000000000 ), #74 );
#62 = DIMENSIONAL_EXPONENTS( 1.00000000000000, 0.000000000000000, 0.000000000000000, 0.000000000000000, 0.000000000000000, 0.000000000000000, 0.000000000000000 );
#64 = DIMENSIONAL_EXPONENTS( 0.000000000000000, 0.000000000000000, 0.000000000000000, 0.000000000000000, 0.000000000000000, 0.000000000000000, 0.000000000000000 );
#70 = CLOSED_SHELL( '', ( #75, #76, #77, #78, #79, #80, #81, #82, #83, #84, #85, #86, #87, #88, #89, #90, #91 ) );
#71 = CARTESIAN_POINT( '', ( 0.000000000000000, 0.000000000000000, 0.000000000000000 ) );
#72 = DIRECTION( '', ( 0.000000000000000, 0.000000000000000, 1.00000000000000 ) );
#73 = DIRECTION( '', ( 1.00000000000000, 0.000000000000000, 0.000000000000000 ) );
#74 =  ( NAMED_UNIT( #62 )LENGTH_UNIT(  )SI_UNIT( .MILLI., .METRE. ) );
#75 = ADVANCED_FACE( '', ( #93 ), #94, .T. );
#76 = ADVANCED_FACE( '', ( #95, #96 ), #97, .T. );
#77 = ADVANCED_FACE( '', ( #98, #99 ), #100, .F. );
#78 = ADVANCED_FACE( '', ( #101, #102 ), #103, .F. );
#79 = ADVANCED_FACE( '', ( #104, #105 ), #106, .T. );
#80 = ADVANCED_FACE( '', ( #107 ), #108, .T. );
#81 = ADVANCED_FACE( '', ( #109 ), #110, .T. );
#82 = ADVANCED_FACE( '', ( #111 ), #112, .T. );
#83 = ADVANCED_FACE( '', ( #113, #114 ), #115, .F. );
#84 = ADVANCED_FACE( '', ( #116, #117 ), #118, .T. );
#85 = ADVANCED_FACE( '', ( #119 ), #120, .T. );
#86 = ADVANCED_FACE( '', ( #121 ), #122, .T. );
#87 = ADVANCED_FACE( '', ( #123 ), #124, .T. );
#88 = ADVANCED_FACE( '', ( #125 ), #126, .T. );
#89 = ADVANCED_FACE( '', ( #127 ), #128, .F. );
#90 = ADVANCED_FACE( '', ( #129 ), #130, .F. );
#91 = ADVANCED_FACE( '', ( #131 ), #132, .T. );
#93 = FACE_OUTER_BOUND( '', #133, .T. );
#94 = PLANE( '', #134 );
#95 = FACE_OUTER_BOUND( '', #135, .T. );
#96 = FACE_OUTER_BOUND( '', #136, .T. );
#97 = CYLINDRICAL_SURFACE( '', #137, 15.0000000000000 );
#98 = FACE_OUTER_BOUND( '', #138, .T. );
#99 = FACE_BOUND( '', #139, .T. );
#100 = CONICAL_SURFACE( '', #140, 3.40000000000000, 1.02974425867665 );
#101 = FACE_OUTER_BOUND( '', #141, .T. );
#102 = FACE_OUTER_BOUND( '', #142, .T. );
#103 = CYLINDRICAL_SURFACE( '', #143, 3.40000000000000 );
#104 = FACE_OUTER_BOUND( '', #144, .T. );
#105 = FACE_OUTER_BOUND( '', #145, .T. );
#106 = TOROIDAL_SURFACE( '', #146, 14.0000000000000, 1.00000000000000 );
#107 = FACE_OUTER_BOUND( '', #147, .T. );
#108 = CYLINDRICAL_SURFACE( '', #148, 14.5000000000000 );
#109 = FACE_OUTER_BOUND( '', #149, .T. );
#110 = PLANE( '', #150 );
#111 = FACE_OUTER_BOUND( '', #151, .T. );
#112 = CYLINDRICAL_SURFACE( '', #152, 14.5000000000000 );
#113 = FACE_BOUND( '', #153, .T. );
#114 = FACE_OUTER_BOUND( '', #154, .T. );
#115 = PLANE( '', #155 );
#116 = FACE_OUTER_BOUND( '', #156, .T. );
#117 = FACE_OUTER_BOUND( '', #157, .T. );
#118 = TOROIDAL_SURFACE( '', #158, 14.5000000000000, 0.500000000000000 );
#119 = FACE_OUTER_BOUND( '', #159, .T. );
#120 = CONICAL_SURFACE( '', #160, 14.0000000000000, 0.785398163397448 );
#121 = FACE_OUTER_BOUND( '', #161, .T. );
#122 = PLANE( '', #162 );
#123 = FACE_OUTER_BOUND( '', #163, .T. );
#124 = PLANE( '', #164 );
#125 = FACE_OUTER_BOUND( '', #165, .T. );
#126 = CONICAL_SURFACE( '', #166, 14.0000000000000, 0.785398163397448 );
#127 = FACE_OUTER_BOUND( '', #167, .T. );
#128 = PLANE( '', #168 );
#129 = FACE_OUTER_BOUND( '', #169, .T. );
#130 = PLANE( '', #170 );
#131 = FACE_OUTER_BOUND( '', #171, .T. );
#132 = PLANE( '', #172 );
#133 = EDGE_LOOP( '', ( #173, #174 ) );
#134 = AXIS2_PLACEMENT_3D( '', #175, #176, #177 );
#135 = EDGE_LOOP( '', ( #178 ) );
#136 = EDGE_LOOP( '', ( #179 ) );
#137 = AXIS2_PLACEMENT_3D( '', #180, #181, #182 );
#138 = EDGE_LOOP( '', ( #183 ) );
#139 = VERTEX_LOOP( '', #184 );
#140 = AXIS2_PLACEMENT_3D( '', #185, #186, #187 );
#141 = EDGE_LOOP( '', ( #188 ) );
#142 = EDGE_LOOP( '', ( #189 ) );
#143 = AXIS2_PLACEMENT_3D( '', #190, #191, #192 );
#144 = EDGE_LOOP( '', ( #193 ) );
#145 = EDGE_LOOP( '', ( #194 ) );
#146 = AXIS2_PLACEMENT_3D( '', #195, #196, #197 );
#147 = EDGE_LOOP( '', ( #198, #199, #200, #201 ) );
#148 = AXIS2_PLACEMENT_3D( '', #202, #203, #204 );
#149 = EDGE_LOOP( '', ( #205, #206 ) );
#150 = AXIS2_PLACEMENT_3D( '', #207, #208, #209 );
#151 = EDGE_LOOP( '', ( #210, #211, #212, #213 ) );
#152 = AXIS2_PLACEMENT_3D( '', #214, #215, #216 );
#153 = EDGE_LOOP( '', ( #217 ) );
#154 = EDGE_LOOP( '', ( #218 ) );
#155 = AXIS2_PLACEMENT_3D( '', #219, #220, #221 );
#156 = EDGE_LOOP( '', ( #222 ) );
#157 = EDGE_LOOP( '', ( #223, #224, #225, #226 ) );
#158 = AXIS2_PLACEMENT_3D( '', #227, #228, #229 );
#159 = EDGE_LOOP( '', ( #230, #231, #232, #233 ) );
#160 = AXIS2_PLACEMENT_3D( '', #234, #235, #236 );
#161 = EDGE_LOOP( '', ( #237, #238, #239, #240 ) );
#162 = AXIS2_PLACEMENT_3D( '', #241, #242, #243 );
#163 = EDGE_LOOP( '', ( #244, #245, #246, #247 ) );
#164 = AXIS2_PLACEMENT_3D( '', #248, #249, #250 );
#165 = EDGE_LOOP( '', ( #251, #252, #253, #254 ) );
#166 = AXIS2_PLACEMENT_3D( '', #255, #256, #257 );
#167 = EDGE_LOOP( '', ( #258, #259, #260, #261 ) );
#168 = AXIS2_PLACEMENT_3D( '', #262, #263, #264 );
#169 = EDGE_LOOP( '', ( #265, #266, #267, #268 ) );
#170 = AXIS2_PLACEMENT_3D( '', #269, #270, #271 );
#171 = EDGE_LOOP( '', ( #272, #273, #274, #275 ) );
#172 = AXIS2_PLACEMENT_3D( '', #276, #277, #278 );
#173 = ORIENTED_EDGE( '', *, *, #279, .T. );
#174 = ORIENTED_EDGE( '', *, *, #280, .T. );
#175 = CARTESIAN_POINT( '', ( 0.000000000000000, 0.000000000000000, 49.0000000000000 ) );
#176 = DIRECTION( '', ( 0.000000000000000, 0.000000000000000, 1.00000000000000 ) );
#177 = DIRECTION( '', ( 1.00000000000000, 0.000000000000000, 0.000000000000000 ) );
#178 = ORIENTED_EDGE( '', *, *, #281, .T. );
#179 = ORIENTED_EDGE( '', *, *, #282, .T. );
#180 = CARTESIAN_POINT( '', ( 0.000000000000000, 0.000000000000000, 49.0000000000000 ) );
#181 = DIRECTION( '', ( -0.000000000000000, -0.000000000000000, 1.00000000000000 ) );
#182 = DIRECTION( '', ( -1.00000000000000, 0.000000000000000, 0.000000000000000 ) );
#183 = ORIENTED_EDGE( '', *, *, #283, .F. );
#184 = VERTEX_POINT( '', #284 );
#185 = CARTESIAN_POINT( '', ( 0.000000000000000, 0.000000000000000, 20.0000000000000 ) );
#186 = DIRECTION( '', ( 0.000000000000000, -0.000000000000000, -1.00000000000000 ) );
#187 = DIRECTION( '', ( 0.000000000000000, -1.00000000000000, 0.000000000000000 ) );
#188 = ORIENTED_EDGE( '', *, *, #283, .T. );
#189 = ORIENTED_EDGE( '', *, *, #285, .F. );
#190 = CARTESIAN_POINT( '', ( 0.000000000000000, 0.000000000000000, 0.000000000000000 ) );
#191 = DIRECTION( '', ( -0.000000000000000, 0.000000000000000, -1.00000000000000 ) );
#192 = DIRECTION( '', ( 0.000000000000000, 1.00000000000000, 0.000000000000000 ) );
#193 = ORIENTED_EDGE( '', *, *, #286, .F. );
#194 = ORIENTED_EDGE( '', *, *, #281, .F. );
#195 = CARTESIAN_POINT( '', ( 0.000000000000000, 0.000000000000000, 1.00000000000000 ) );
#196 = DIRECTION( '', ( 0.000000000000000, 0.000000000000000, 1.00000000000000 ) );
#197 = DIRECTION( '', ( 1.00000000000000, 0.000000000000000, 0.000000000000000 ) );
#198 = ORIENTED_EDGE( '', *, *, #287, .T. );
#199 = ORIENTED_EDGE( '', *, *, #288, .T. );
#200 = ORIENTED_EDGE( '', *, *, #289, .T. );
#201 = ORIENTED_EDGE( '', *, *, #290, .T. );
#202 = CARTESIAN_POINT( '', ( 0.000000000000000, 0.000000000000000, 64.0000000000000 ) );
#203 = DIRECTION( '', ( -0.000000000000000, -0.000000000000000, 1.00000000000000 ) );
#204 = DIRECTION( '', ( -1.00000000000000, 0.000000000000000, 0.000000000000000 ) );
#205 = ORIENTED_EDGE( '', *, *, #291, .F. );
#206 = ORIENTED_EDGE( '', *, *, #292, .T. );
#207 = CARTESIAN_POINT( '', ( 0.000000000000000, 0.000000000000000, 49.0000000000000 ) );
#208 = DIRECTION( '', ( 0.000000000000000, 0.000000000000000, 1.00000000000000 ) );
#209 = DIRECTION( '', ( 1.00000000000000, 0.000000000000000, 0.000000000000000 ) );
#210 = ORIENTED_EDGE( '', *, *, #293, .T. );
#211 = ORIENTED_EDGE( '', *, *, #294, .T. );
#212 = ORIENTED_EDGE( '', *, *, #295, .T. );
#213 = ORIENTED_EDGE( '', *, *, #296, .T. );
#214 = CARTESIAN_POINT( '', ( 0.000000000000000, 0.000000000000000, 64.0000000000000 ) );
#215 = DIRECTION( '', ( -0.000000000000000, -0.000000000000000, 1.00000000000000 ) );
#216 = DIRECTION( '', ( -1.00000000000000, 0.000000000000000, 0.000000000000000 ) );
#217 = ORIENTED_EDGE( '', *, *, #285, .T. );
#218 = ORIENTED_EDGE( '', *, *, #286, .T. );
#219 = CARTESIAN_POINT( '', ( 0.000000000000000, 0.000000000000000, 0.000000000000000 ) );
#220 = DIRECTION( '', ( 0.000000000000000, 0.000000000000000, 1.00000000000000 ) );
#221 = DIRECTION( '', ( 1.00000000000000, 0.000000000000000, 0.000000000000000 ) );
#222 = ORIENTED_EDGE( '', *, *, #282, .F. );
#223 = ORIENTED_EDGE( '', *, *, #280, .F. );
#224 = ORIENTED_EDGE( '', *, *, #296, .F. );
#225 = ORIENTED_EDGE( '', *, *, #292, .F. );
#226 = ORIENTED_EDGE( '', *, *, #290, .F. );
#227 = CARTESIAN_POINT( '', ( 0.000000000000000, 0.000000000000000, 48.5000000000000 ) );
#228 = DIRECTION( '', ( 0.000000000000000, 0.000000000000000, 1.00000000000000 ) );
#229 = DIRECTION( '', ( 1.00000000000000, 0.000000000000000, 0.000000000000000 ) );
#230 = ORIENTED_EDGE( '', *, *, #297, .T. );
#231 = ORIENTED_EDGE( '', *, *, #288, .F. );
#232 = ORIENTED_EDGE( '', *, *, #298, .T. );
#233 = ORIENTED_EDGE( '', *, *, #299, .F. );
#234 = CARTESIAN_POINT( '', ( 0.000000000000000, 0.000000000000000, 64.0000000000000 ) );
#235 = DIRECTION( '', ( -0.000000000000000, 0.000000000000000, -1.00000000000000 ) );
#236 = DIRECTION( '', ( -1.00000000000000, 0.000000000000000, 0.000000000000000 ) );
#237 = ORIENTED_EDGE( '', *, *, #300, .T. );
#238 = ORIENTED_EDGE( '', *, *, #301, .F. );
#239 = ORIENTED_EDGE( '', *, *, #298, .F. );
#240 = ORIENTED_EDGE( '', *, *, #302, .F. );
#241 = CARTESIAN_POINT( '', ( 9.50000000000000, 0.000000000000000, 64.0000000000000 ) );
#242 = DIRECTION( '', ( 0.707106781186548, 0.000000000000000, 0.707106781186548 ) );
#243 = DIRECTION( '', ( 0.707106781186548, 0.000000000000000, -0.707106781186548 ) );
#244 = ORIENTED_EDGE( '', *, *, #303, .T. );
#245 = ORIENTED_EDGE( '', *, *, #304, .F. );
#246 = ORIENTED_EDGE( '', *, *, #297, .F. );
#247 = ORIENTED_EDGE( '', *, *, #305, .F. );
#248 = CARTESIAN_POINT( '', ( -10.0000000000000, -15.0000000000000, 63.5000000000000 ) );
#249 = DIRECTION( '', ( -0.707106781186548, 0.000000000000000, 0.707106781186548 ) );
#250 = DIRECTION( '', ( 0.707106781186548, 0.000000000000000, 0.707106781186548 ) );
#251 = ORIENTED_EDGE( '', *, *, #300, .F. );
#252 = ORIENTED_EDGE( '', *, *, #294, .F. );
#253 = ORIENTED_EDGE( '', *, *, #303, .F. );
#254 = ORIENTED_EDGE( '', *, *, #306, .F. );
#255 = CARTESIAN_POINT( '', ( 0.000000000000000, 0.000000000000000, 64.0000000000000 ) );
#256 = DIRECTION( '', ( -0.000000000000000, 0.000000000000000, -1.00000000000000 ) );
#257 = DIRECTION( '', ( -1.00000000000000, 0.000000000000000, 0.000000000000000 ) );
#258 = ORIENTED_EDGE( '', *, *, #295, .F. );
#259 = ORIENTED_EDGE( '', *, *, #302, .T. );
#260 = ORIENTED_EDGE( '', *, *, #287, .F. );
#261 = ORIENTED_EDGE( '', *, *, #291, .T. );
#262 = CARTESIAN_POINT( '', ( 10.0000000000000, -15.0000000000000, 49.0000000000000 ) );
#263 = DIRECTION( '', ( -1.00000000000000, 0.000000000000000, -4.62592926927149E-016 ) );
#264 = DIRECTION( '', ( -4.62592926927149E-016, 0.000000000000000, 1.00000000000000 ) );
#265 = ORIENTED_EDGE( '', *, *, #289, .F. );
#266 = ORIENTED_EDGE( '', *, *, #304, .T. );
#267 = ORIENTED_EDGE( '', *, *, #293, .F. );
#268 = ORIENTED_EDGE( '', *, *, #279, .F. );
#269 = CARTESIAN_POINT( '', ( -10.0000000000000, -15.0000000000000, 64.0000000000000 ) );
#270 = DIRECTION( '', ( 1.00000000000000, 0.000000000000000, 4.62592926927149E-016 ) );
#271 = DIRECTION( '', ( 4.62592926927149E-016, 0.000000000000000, -1.00000000000000 ) );
#272 = ORIENTED_EDGE( '', *, *, #305, .T. );
#273 = ORIENTED_EDGE( '', *, *, #299, .T. );
#274 = ORIENTED_EDGE( '', *, *, #301, .T. );
#275 = ORIENTED_EDGE( '', *, *, #306, .T. );
#276 = CARTESIAN_POINT( '', ( 0.000000000000000, 0.000000000000000, 64.0000000000000 ) );
#277 = DIRECTION( '', ( 0.000000000000000, 0.000000000000000, 1.00000000000000 ) );
#278 = DIRECTION( '', ( 1.00000000000000, 0.000000000000000, 0.000000000000000 ) );
#279 = EDGE_CURVE( '', #307, #308, #309, .T. );
#280 = EDGE_CURVE( '', #308, #307, #310, .T. );
#281 = EDGE_CURVE( '', #311, #311, #312, .T. );
#282 = EDGE_CURVE( '', #313, #313, #314, .F. );
#283 = EDGE_CURVE( '', #315, #315, #316, .T. );
#284 = CARTESIAN_POINT( '', ( 0.000000000000000, 0.000000000000000, 22.0429261046937 ) );
#285 = EDGE_CURVE( '', #317, #317, #318, .T. );
#286 = EDGE_CURVE( '', #319, #319, #320, .F. );
#287 = EDGE_CURVE( '', #321, #322, #323, .F. );
#288 = EDGE_CURVE( '', #322, #324, #325, .F. );
#289 = EDGE_CURVE( '', #324, #307, #326, .T. );
#290 = EDGE_CURVE( '', #307, #321, #327, .T. );
#291 = EDGE_CURVE( '', #321, #328, #329, .T. );
#292 = EDGE_CURVE( '', #321, #328, #330, .T. );
#293 = EDGE_CURVE( '', #308, #331, #332, .F. );
#294 = EDGE_CURVE( '', #331, #333, #334, .F. );
#295 = EDGE_CURVE( '', #333, #328, #335, .T. );
#296 = EDGE_CURVE( '', #328, #308, #336, .T. );
#297 = EDGE_CURVE( '', #337, #324, #338, .F. );
#298 = EDGE_CURVE( '', #322, #339, #340, .F. );
#299 = EDGE_CURVE( '', #337, #339, #341, .T. );
#300 = EDGE_CURVE( '', #333, #342, #343, .T. );
#301 = EDGE_CURVE( '', #339, #342, #344, .T. );
#302 = EDGE_CURVE( '', #333, #322, #345, .T. );
#303 = EDGE_CURVE( '', #346, #331, #347, .F. );
#304 = EDGE_CURVE( '', #324, #331, #348, .T. );
#305 = EDGE_CURVE( '', #346, #337, #349, .T. );
#306 = EDGE_CURVE( '', #342, #346, #350, .T. );
#307 = VERTEX_POINT( '', #351 );
#308 = VERTEX_POINT( '', #352 );
#309 = LINE( '', #353, #354 );
#310 = CIRCLE( '', #355, 14.5000000000000 );
#311 = VERTEX_POINT( '', #356 );
#312 = CIRCLE( '', #357, 15.0000000000000 );
#313 = VERTEX_POINT( '', #358 );
#314 = CIRCLE( '', #359, 15.0000000000000 );
#315 = VERTEX_POINT( '', #360 );
#316 = CIRCLE( '', #361, 3.40000000000000 );
#317 = VERTEX_POINT( '', #362 );
#318 = CIRCLE( '', #363, 3.40000000000000 );
#319 = VERTEX_POINT( '', #364 );
#320 = CIRCLE( '', #365, 14.0000000000000 );
#321 = VERTEX_POINT( '', #366 );
#322 = VERTEX_POINT( '', #367 );
#323 = LINE( '', #368, #369 );
#324 = VERTEX_POINT( '', #370 );
#325 = CIRCLE( '', #371, 14.5000000000000 );
#326 = LINE( '', #372, #373 );
#327 = CIRCLE( '', #374, 14.5000000000000 );
#328 = VERTEX_POINT( '', #375 );
#329 = LINE( '', #376, #377 );
#330 = CIRCLE( '', #378, 14.5000000000000 );
#331 = VERTEX_POINT( '', #379 );
#332 = LINE( '', #380, #381 );
#333 = VERTEX_POINT( '', #382 );
#334 = CIRCLE( '', #383, 14.5000000000000 );
#335 = LINE( '', #384, #385 );
#336 = CIRCLE( '', #386, 14.5000000000000 );
#337 = VERTEX_POINT( '', #387 );
#338 = B_SPLINE_CURVE_WITH_KNOTS( '', 3, ( #388, #389, #390, #391 ), .UNSPECIFIED., .F., .F., ( 4, 4 ), ( 0.000000000000000, 0.000739513412567422 ), .UNSPECIFIED. );
#339 = VERTEX_POINT( '', #392 );
#340 = B_SPLINE_CURVE_WITH_KNOTS( '', 3, ( #393, #394, #395, #396 ), .UNSPECIFIED., .F., .F., ( 4, 4 ), ( 0.000000000000000, 0.000739513412567416 ), .UNSPECIFIED. );
#341 = CIRCLE( '', #397, 14.0000000000000 );
#342 = VERTEX_POINT( '', #398 );
#343 = B_SPLINE_CURVE_WITH_KNOTS( '', 3, ( #399, #400, #401, #402 ), .UNSPECIFIED., .F., .F., ( 4, 4 ), ( 0.000000000000000, 0.000739513412567416 ), .UNSPECIFIED. );
#344 = LINE( '', #403, #404 );
#345 = LINE( '', #405, #406 );
#346 = VERTEX_POINT( '', #407 );
#347 = B_SPLINE_CURVE_WITH_KNOTS( '', 3, ( #408, #409, #410, #411 ), .UNSPECIFIED., .F., .F., ( 4, 4 ), ( 0.000000000000000, 0.000739513412567422 ), .UNSPECIFIED. );
#348 = LINE( '', #412, #413 );
#349 = LINE( '', #414, #415 );
#350 = CIRCLE( '', #416, 14.0000000000000 );
#351 = CARTESIAN_POINT( '', ( -10.0000000000000, -10.5000000000000, 49.0000000000000 ) );
#352 = CARTESIAN_POINT( '', ( -10.0000000000000, 10.5000000000000, 49.0000000000000 ) );
#353 = CARTESIAN_POINT( '', ( -10.0000000000000, -15.0000000000000, 49.0000000000000 ) );
#354 = VECTOR( '', #417, 1000.00000000000 );
#355 = AXIS2_PLACEMENT_3D( '', #418, #419, #420 );
#356 = CARTESIAN_POINT( '', ( 15.0000000000000, 0.000000000000000, 1.00000000000000 ) );
#357 = AXIS2_PLACEMENT_3D( '', #421, #422, #423 );
#358 = CARTESIAN_POINT( '', ( 15.0000000000000, 0.000000000000000, 48.5000000000000 ) );
#359 = AXIS2_PLACEMENT_3D( '', #424, #425, #426 );
#360 = CARTESIAN_POINT( '', ( 0.000000000000000, -3.40000000000000, 20.0000000000000 ) );
#361 = AXIS2_PLACEMENT_3D( '', #427, #428, #429 );
#362 = CARTESIAN_POINT( '', ( 0.000000000000000, 3.40000000000000, 0.000000000000000 ) );
#363 = AXIS2_PLACEMENT_3D( '', #430, #431, #432 );
#364 = CARTESIAN_POINT( '', ( 14.0000000000000, 0.000000000000000, 0.000000000000000 ) );
#365 = AXIS2_PLACEMENT_3D( '', #433, #434, #435 );
#366 = CARTESIAN_POINT( '', ( 10.0000000000000, -10.5000000000000, 49.0000000000000 ) );
#367 = CARTESIAN_POINT( '', ( 10.0000000000000, -10.5000000000000, 63.5000000000000 ) );
#368 = CARTESIAN_POINT( '', ( 10.0000000000000, -10.5000000000000, 64.0000000000000 ) );
#369 = VECTOR( '', #436, 1000.00000000000 );
#370 = CARTESIAN_POINT( '', ( -10.0000000000000, -10.5000000000000, 63.5000000000000 ) );
#371 = AXIS2_PLACEMENT_3D( '', #437, #438, #439 );
#372 = CARTESIAN_POINT( '', ( -10.0000000000000, -10.5000000000000, 64.0000000000000 ) );
#373 = VECTOR( '', #440, 1000.00000000000 );
#374 = AXIS2_PLACEMENT_3D( '', #441, #442, #443 );
#375 = CARTESIAN_POINT( '', ( 10.0000000000000, 10.5000000000000, 49.0000000000000 ) );
#376 = CARTESIAN_POINT( '', ( 10.0000000000000, -15.0000000000000, 49.0000000000000 ) );
#377 = VECTOR( '', #444, 1000.00000000000 );
#378 = AXIS2_PLACEMENT_3D( '', #445, #446, #447 );
#379 = CARTESIAN_POINT( '', ( -10.0000000000000, 10.5000000000000, 63.5000000000000 ) );
#380 = CARTESIAN_POINT( '', ( -10.0000000000000, 10.5000000000000, 64.0000000000000 ) );
#381 = VECTOR( '', #448, 1000.00000000000 );
#382 = CARTESIAN_POINT( '', ( 10.0000000000000, 10.5000000000000, 63.5000000000000 ) );
#383 = AXIS2_PLACEMENT_3D( '', #449, #450, #451 );
#384 = CARTESIAN_POINT( '', ( 10.0000000000000, 10.5000000000000, 64.0000000000000 ) );
#385 = VECTOR( '', #452, 1000.00000000000 );
#386 = AXIS2_PLACEMENT_3D( '', #453, #454, #455 );
#387 = CARTESIAN_POINT( '', ( -9.50000000000000, -10.2834819006016, 64.0000000000000 ) );
#388 = CARTESIAN_POINT( '', ( -10.0000000000000, -10.5000000000000, 63.5000000000000 ) );
#389 = CARTESIAN_POINT( '', ( -9.83318659331756, -10.4285085399932, 63.6668134066824 ) );
#390 = CARTESIAN_POINT( '', ( -9.66651567304697, -10.3563483223013, 63.8334843269530 ) );
#391 = CARTESIAN_POINT( '', ( -9.50000000000000, -10.2834819006016, 64.0000000000000 ) );
#392 = CARTESIAN_POINT( '', ( 9.50000000000000, -10.2834819006016, 64.0000000000000 ) );
#393 = CARTESIAN_POINT( '', ( 9.50000000000000, -10.2834819006016, 64.0000000000000 ) );
#394 = CARTESIAN_POINT( '', ( 9.66651567304697, -10.3563483223014, 63.8334843269530 ) );
#395 = CARTESIAN_POINT( '', ( 9.83318659331756, -10.4285085399932, 63.6668134066824 ) );
#396 = CARTESIAN_POINT( '', ( 10.0000000000000, -10.5000000000000, 63.5000000000000 ) );
#397 = AXIS2_PLACEMENT_3D( '', #456, #457, #458 );
#398 = CARTESIAN_POINT( '', ( 9.50000000000000, 10.2834819006016, 64.0000000000000 ) );
#399 = CARTESIAN_POINT( '', ( 10.0000000000000, 10.5000000000000, 63.5000000000000 ) );
#400 = CARTESIAN_POINT( '', ( 9.83318659331756, 10.4285085399932, 63.6668134066824 ) );
#401 = CARTESIAN_POINT( '', ( 9.66651567304697, 10.3563483223014, 63.8334843269530 ) );
#402 = CARTESIAN_POINT( '', ( 9.50000000000000, 10.2834819006016, 64.0000000000000 ) );
#403 = CARTESIAN_POINT( '', ( 9.50000000000000, 10.5000000000000, 64.0000000000000 ) );
#404 = VECTOR( '', #459, 1000.00000000000 );
#405 = CARTESIAN_POINT( '', ( 10.0000000000000, -10.5000000000000, 63.5000000000000 ) );
#406 = VECTOR( '', #460, 1000.00000000000 );
#407 = CARTESIAN_POINT( '', ( -9.50000000000000, 10.2834819006016, 64.0000000000000 ) );
#408 = CARTESIAN_POINT( '', ( -10.0000000000000, 10.5000000000000, 63.5000000000000 ) );
#409 = CARTESIAN_POINT( '', ( -9.83318659331756, 10.4285085399932, 63.6668134066824 ) );
#410 = CARTESIAN_POINT( '', ( -9.66651567304697, 10.3563483223013, 63.8334843269530 ) );
#411 = CARTESIAN_POINT( '', ( -9.50000000000000, 10.2834819006016, 64.0000000000000 ) );
#412 = CARTESIAN_POINT( '', ( -10.0000000000000, 10.5000000000000, 63.5000000000000 ) );
#413 = VECTOR( '', #461, 1000.00000000000 );
#414 = CARTESIAN_POINT( '', ( -9.50000000000000, -10.5000000000000, 64.0000000000000 ) );
#415 = VECTOR( '', #462, 1000.00000000000 );
#416 = AXIS2_PLACEMENT_3D( '', #463, #464, #465 );
#417 = DIRECTION( '', ( 0.000000000000000, 1.00000000000000, 0.000000000000000 ) );
#418 = CARTESIAN_POINT( '', ( 0.000000000000000, 0.000000000000000, 49.0000000000000 ) );
#419 = DIRECTION( '', ( 0.000000000000000, 0.000000000000000, 1.00000000000000 ) );
#420 = DIRECTION( '', ( 1.00000000000000, 0.000000000000000, 0.000000000000000 ) );
#421 = CARTESIAN_POINT( '', ( 0.000000000000000, 0.000000000000000, 1.00000000000000 ) );
#422 = DIRECTION( '', ( 0.000000000000000, 0.000000000000000, 1.00000000000000 ) );
#423 = DIRECTION( '', ( 1.00000000000000, 0.000000000000000, 0.000000000000000 ) );
#424 = CARTESIAN_POINT( '', ( 0.000000000000000, 0.000000000000000, 48.5000000000000 ) );
#425 = DIRECTION( '', ( 0.000000000000000, 0.000000000000000, 1.00000000000000 ) );
#426 = DIRECTION( '', ( 1.00000000000000, 0.000000000000000, 0.000000000000000 ) );
#427 = CARTESIAN_POINT( '', ( 0.000000000000000, 0.000000000000000, 20.0000000000000 ) );
#428 = DIRECTION( '', ( 0.000000000000000, 0.000000000000000, 1.00000000000000 ) );
#429 = DIRECTION( '', ( 0.000000000000000, -1.00000000000000, 0.000000000000000 ) );
#430 = CARTESIAN_POINT( '', ( 0.000000000000000, 0.000000000000000, 0.000000000000000 ) );
#431 = DIRECTION( '', ( 0.000000000000000, -0.000000000000000, 1.00000000000000 ) );
#432 = DIRECTION( '', ( 0.000000000000000, 1.00000000000000, 0.000000000000000 ) );
#433 = CARTESIAN_POINT( '', ( 0.000000000000000, 0.000000000000000, 0.000000000000000 ) );
#434 = DIRECTION( '', ( 0.000000000000000, 0.000000000000000, 1.00000000000000 ) );
#435 = DIRECTION( '', ( 1.00000000000000, 0.000000000000000, 0.000000000000000 ) );
#436 = DIRECTION( '', ( 0.000000000000000, 0.000000000000000, -1.00000000000000 ) );
#437 = CARTESIAN_POINT( '', ( 0.000000000000000, 0.000000000000000, 63.5000000000000 ) );
#438 = DIRECTION( '', ( 0.000000000000000, 0.000000000000000, 1.00000000000000 ) );
#439 = DIRECTION( '', ( 1.00000000000000, 0.000000000000000, 0.000000000000000 ) );
#440 = DIRECTION( '', ( 0.000000000000000, 0.000000000000000, -1.00000000000000 ) );
#441 = CARTESIAN_POINT( '', ( 0.000000000000000, 0.000000000000000, 49.0000000000000 ) );
#442 = DIRECTION( '', ( 0.000000000000000, -0.000000000000000, 1.00000000000000 ) );
#443 = DIRECTION( '', ( 0.000000000000000, 1.00000000000000, 0.000000000000000 ) );
#444 = DIRECTION( '', ( 0.000000000000000, 1.00000000000000, 0.000000000000000 ) );
#445 = CARTESIAN_POINT( '', ( 0.000000000000000, 0.000000000000000, 49.0000000000000 ) );
#446 = DIRECTION( '', ( 0.000000000000000, 0.000000000000000, 1.00000000000000 ) );
#447 = DIRECTION( '', ( 1.00000000000000, 0.000000000000000, 0.000000000000000 ) );
#448 = DIRECTION( '', ( 0.000000000000000, 0.000000000000000, -1.00000000000000 ) );
#449 = CARTESIAN_POINT( '', ( 0.000000000000000, 0.000000000000000, 63.5000000000000 ) );
#450 = DIRECTION( '', ( 0.000000000000000, 0.000000000000000, 1.00000000000000 ) );
#451 = DIRECTION( '', ( 1.00000000000000, 0.000000000000000, 0.000000000000000 ) );
#452 = DIRECTION( '', ( 0.000000000000000, 0.000000000000000, -1.00000000000000 ) );
#453 = CARTESIAN_POINT( '', ( 0.000000000000000, 0.000000000000000, 49.0000000000000 ) );
#454 = DIRECTION( '', ( 0.000000000000000, -0.000000000000000, 1.00000000000000 ) );
#455 = DIRECTION( '', ( 0.000000000000000, 1.00000000000000, 0.000000000000000 ) );
#456 = CARTESIAN_POINT( '', ( 0.000000000000000, 0.000000000000000, 64.0000000000000 ) );
#457 = DIRECTION( '', ( 0.000000000000000, 0.000000000000000, 1.00000000000000 ) );
#458 = DIRECTION( '', ( 1.00000000000000, 0.000000000000000, 0.000000000000000 ) );
#459 = DIRECTION( '', ( 0.000000000000000, 1.00000000000000, 0.000000000000000 ) );
#460 = DIRECTION( '', ( 0.000000000000000, -1.00000000000000, 0.000000000000000 ) );
#461 = DIRECTION( '', ( 0.000000000000000, 1.00000000000000, 0.000000000000000 ) );
#462 = DIRECTION( '', ( 0.000000000000000, -1.00000000000000, 0.000000000000000 ) );
#463 = CARTESIAN_POINT( '', ( 0.000000000000000, 0.000000000000000, 64.0000000000000 ) );
#464 = DIRECTION( '', ( 0.000000000000000, 0.000000000000000, 1.00000000000000 ) );
#465 = DIRECTION( '', ( 1.00000000000000, 0.000000000000000, 0.000000000000000 ) );
ENDSEC;
END-ISO-10303-21;
